Cifra Club

La Vida

Los Rabanes

Cifrado: Principal (guitarra y guitarra eléctrica)
tono: A

INTRO:
E|------------------------------------------------------|
B|------------------------------------------------------|
G|-----------7-------------------7-5~~--5---------------|
D|-57-7-777--77-7-777--57-7-777--7-5~~--5-5~~-777777777-|
A|-57-7-777--57-7-777--57-7-777--5-3~~--3-5~~-777777777-|
E|-35-5-555---5-5-555--35-5-555-----------3~~-555555555-|

A                                                      E7
Si la vida se me va yo no quiero parar de ser un chico loco,

de meterme en mil problemas
                                           A
de hacer lo que yo quiera de andar en alborotos
                                          A7
Si la vida se me acaba yo no quiero ser carga
                  D
no quiero ser un viejo,
D5                      C5
por eso yo vivo los excesos hasta que no tenga sesos
D5           A5
y me explote el corazon,
D5                      C5
y vivo como el ultimo día porque
         A5
las alegrias no caben en el cajón.

E|------------------------------------------------------|
B|------------------------------------------------------|
G|-----------7-------------------7-5~~--5---------------|
D|-57-7-777--77-7-777--57-7-777--7-5~~--5-5~~-777777777-|
A|-57-7-777--57-7-777--57-7-777--5-3~~--3-5~~-777777777-|
E|-35-5-555---5-5-555--35-5-555-----------3~~-555555555-|

A
Si la vida no me quiere para que yo la quiero
                      E7
pues si ella no me quiere,

yo un alcoholico suicida que ama la bebida
                 A
y adora a las mujeres,
                                       A7
Yo le brindo una sonrisa al que la necesita
                      D
y no me quedaré sin dientes,
D5                      C5
por eso yo vivo los excesos hasta que no tenga sesos
D5           A5
y me explote el corazon,
D5                      C5
y vivo como el ultimo día porque
         A5
las alegrias no caben en el cajón.

E|-----------------------------------------|
B|-----------------------------------------|
G|-6-77-6-66--6-6-7-6-4----7777-6666-6-4---|
D|----------------------7----------------7-|
A|-----------------------------------------|
E|-----------------------------------------|

E|-----------------------------------------|
B|---77--------------------7777------------|
G|-7----7-77--7-7-9-7-6---------7777-6-5---|
D|----------------------7----------------7-|
A|-----------------------------------------|
E|-----------------------------------------|

A                                                      E7
Si la vida se me va yo no quiero parar de ser un chico loco,

de meterme en mil problemas
                                           A
de hacer lo que yo quiera de andar en alborotos
                                          A7
Si la vida se me acaba yo no quiero ser carga
                  D
no quiero ser un viejo,
D5                      C5
por eso yo vivo los excesos hasta que no tenga sesos
D5           A5
y me explote el corazon,
D5                      C5
y vivo como el ultimo día porque
         A5
las alegrias no caben en el cajón
D5                      C5
por eso yo vivo los excesos hasta que no tenga sesos
D5           A5
y me explote el corazon,
D5                      C5
y vivo como el ultimo día porque
         A5
las alegrias no caben en el cajón

E|------------------------------------------------------|
B|------------------------------------------------------|
G|-----------7-------------------7-5~~--5---------------|
D|-57-7-777--77-7-777--57-7-777--7-5~~--5-5~~-777777777-|
A|-57-7-777--57-7-777--57-7-777--5-3~~--3-5~~-777777777-|
E|-35-5-555---5-5-555--35-5-555-----------3~~-555555555-|
00:00 / 00:00
Otros videos de esta canción
Repetir
Otros videos de esta canción
Composición de Los Rabanes
2 vistas
    • ½ Tono
    • A
    • Bb
    • B
    • C
    • Db
    • D
    • Eb
    • E
    • F
    • F#
    • G
    • Ab
  • Agregar a la lista

    0 comentarios

    Ver todos los comentarios

    ¿Lograste tocar?

    0 Tocaron 0 Aún no

    ¡Graba un video tocando La Vida y envíanoslo!

    00:00 / 00:00
    OK