Cifra Club

Me Recordarás

Los Rebujitos

Cifrado: Principal (guitarra y guitarra eléctrica)
tono: G
          G                        Em                                C 

E|-7-8-7----------------8-7-----------------------------7-10-8-|
B|-8-----10-8----8-10------10-8-------------7-8-10----------|
G|-7-----------9--------------------9------7-9-------------------|
D|-0------------------------------------10------------------------|
A|------------------------------------------------------------------|
E|-------------------------------------------------------------------|

     D                          G  

E|-8h10h8-7--------------------------|
B|--------------10-10--10-8-7-10-8-|
G|---------------------------------------|
D|---------------------------------------|
A|---------------------------------------|
E|---------------------------------------|

esto se toca en la segunda parte de la cancion

   G                    Em                        C 
E|-----------8-7------------------------------7-10-8-|
B|----8-10-------10-8--------------7-8-10----------|
G|-9---------------------9-----7-9--------------------|
D|--------------------------10-------------------------|
A|------------------------------------------------------|
E|------------------------------------------------------|

   D                            G  

E|-8h10h8-7--------------------------|
B|--------------10-10--10-8-7-10-8-|
G|---------------------------------------|
D|---------------------------------------|
A|---------------------------------------|
E|---------------------------------------|
00:00 / 00:00
Otros videos de esta canción
Repetir
Otros videos de esta canción
Compositor no encontrado.
3 exhibiciones
    • ½ Tono
    • A
    • Bb
    • B
    • C
    • Db
    • D
    • Eb
    • E
    • F
    • F#
    • G
    • Ab
  • Agregar a la lista
    00:00 / 00:00
    OK