Cifra Club

La Barca

Los Tres Caballeros

Cifrado: Principal (guitarra y guitarra eléctrica)
tono: Bm
       Ddim         Em          A7
E|--------------------12-12-12----14-12-10-| 9-10-12----14-14
B|--7-10---7-10-8-7-8-12-12-12----12-12-12-11-11-11----11-11|
G|--8-11---8-11-9-8-9---------------------------------------|
D|----------------------------------------------------------|
A|----------------------------------------------------------|
E|----------------------------------------------------------|

     D              Em              F#m       Fm      Em
E|--5-7-9-5-7-9----5-7-9-5-7-9----| 9-12-10- 9-7-7----12----
B|--7-7-7-7-7-7----8-8-8-8-8-8----10-10-10-10-9-9----12-12-|
G|------------------------------------------------------12-|
D|---------------------------------------------------------|
A|---------------------------------------------------------|
E|---------------------------------------------------------|

                                Gm
E|---------------------------------------------------------|
B|--8-10-12-8-10-12----8-| 9-10-11----11-13-15-11-13-15-----
G|--9-| 9- 9-9- 9- 9----9-10-11-12----12-12-12-12-12-12-----
D|---------------------------------------------------------|
A|---------------------------------------------------------|
E|---------------------------------------------------------|

     F#m                     Fm
E|--12-| 9-10-12- 9-10-12----11-8-9-11-8-9-11---------------
B|--10-10-10-10-10-10-10----| 9-9-9- 9-9-9- 9---------------
G|---------------------------------------------------------|
D|---------------------------------------------------------|
A|---------------------------------------------------------|
E|---------------------------------------------------------|

     Em         A7    D
E|--10-7-5-3S7-7-5-3-2-------------------------------------|
B  -- 8-8-7-5S8-8-7-5-3-------------------------------------
G|-------------------2-------------------------------------|
D|-------------------0-------------------------------------|
A|---------------------------------------------------------|
E|---------------------------------------------------------|


Edim.
 5
 4
 5
 4
 x
 x
Composición de Roberto Cantoral
3 vistas
    • ½ Tono
    • Am
    • Bbm
    • Bm
    • Cm
    • C#m
    • Dm
    • Ebm
    • Em
    • Fm
    • F#m
    • Gm
    • G#m
  • Agregar a la lista

    0 comentarios

    Ver todos los comentarios

    ¿Lograste tocar?

    0 Tocaron 0 Aún no

    ¡Graba un video tocando La Barca y envíanoslo!

    00:00 / 00:00
    Outros vídeos desta música
    Repetir Calidad Automático
    Outros vídeos desta música
    00:00 / 00:00
    Automático
    OK