Cifra Club

Amor Violento

Los Tres

Cifrado: Principal (guitarra y guitarra eléctrica)
tono: A
Intro: A   Dmaj7/A   B   E7

    A         Dmaj7/A         B        E7
E|--9--9--9--9----7--5-5--5--5-5--7--|
B|--10-10-10-10---9--7-7--7--7-7--9--|
G|-----------------------------------|
D|-----------------------------------|
A|-----------------------------------|
E|-----------------------------------|

    A         Dmaj7/A         B        E7
E|--9--9--9--9----7--5-5--5--5-5--7--5-7--|
B|--10-10-10-10---9--7-7--7--7-7--9--7-9--|
G|----------------------------------------|
D|----------------------------------------|
A|----------------------------------------|
E|----------------------------------------|

A       Dmaj7/A     B       E7
E|--7.---5.---4.----------------------|
B|-----------------7.---5.------------|
G|---------------------------6.---6---|
D|------------------------------------|
A|------------------------------------|
E|------------------------------------|


A)
                  A   Dmaj7/A   B  E7
Cuando por primera vez te vi

           A   Dmaj7/A   B  E7
supe que el cielo era para ti y para mi

A   Dmaj7/A   B  E7  x2
y para ti y para mi

A)
Nunca mas podre dormir
nunca mas podre soñar
con nadie que no seas tu

B)
      C#m       F#m
Gastare toda mi vida
    C#m         F#m
en comprar la tuya
     C#m        F#m
gastare toda mi vida
  B
y mas,
   A   Dmaj7/A   B  E7    x4
mas, mucho mas, mucho mas

A)
[El amor tendrá que esperar
un buen rato para descansar
de tu y de mi, de tu y de mi] x2

B)
Gastare toda mi vida
en comprar la tuya
gastare toda mi vida
  B  A G#m  F#m   x2
y mas,          y mas

Solo:
   F#m      A         Dmaj7/A         B        E7
E|-7--9-|--9--9--9--9--9----12-12----5-5-5---7--|
B|------|-----10-10-10-10---14-14----7-7-7---9--|
G|------|---------------------------------------|
D|------|---------------------------------------|
A|------|---------------------------------------|
E|------|---------------------------------------|

    A         Dmaj7/A         B        E7
E|--9--9--9--9----14---12--12--10--12--14--12--|
B|--10-10-10-10--------------------------------|
G|---------------------------------------------|
D|---------------------------------------------|
A|---------------------------------------------|
E|---------------------------------------------|

    A         Dmaj7/A         B        E7
E|--9--9--12---17--17--9--7--5--9--9--5-5--|
B|--10-10-14-------------------------------|
G|-----------------------------------------|
D|-----------------------------------------|
A|-----------------------------------------|
E|-----------------------------------------|

    A         Dmaj7/A         B        E7
E|-----------------------------------------|
B|--7-6-7-6-7-6-7-6-7----5-9--7--7-7-------|
G|-----------------------------------------|
D|-----------------------------------------|
A|-----------------------------------------|
E|-----------------------------------------|

    A         Dmaj7/A         B        E7
E|-----------------------------------------|
B|--5--5--7--9--10--9--9--6--7--7-6-7------|
G|-----------------------------------------|
D|-----------------------------------------|
A|-----------------------------------------|
E|-----------------------------------------|

    A         Dmaj7/A         B        E7
E|--------------------------------------------------|
B|--5--7--9--10--9--9--6--7--7--9--10--7------------|
G|----------------------------------------7--6---4--|
D|--------------------------------------------------|
A|--------------------------------------------------|
E|--------------------------------------------------|

    A         Dmaj7/A         B        E7
E|--------------------------------------------------|
B|--------------------------7--7--6--7--10----------|
G|--9--9--8--9--8--9--8--9--------------------------|
D|--------------------------------------------------|
A|--------------------------------------------------|
E|--------------------------------------------------|


B)
Gastare toda mi vida
en comprar la tuya
gastare toda mi vida
B   A  G#m  F#m   x3           E7
y mas,         y mas , y mas

A)
[Porque un amor violento
nos deslumbro
un amor violento nos fulmino] x2

[A  Dmaj7/A  B  E7] Se mantiene hasta el final

                                            A7
E|---------------------------------------|--^3-----|
B|--9--9-9-7--7-7------------------------|--| 2-----
G|----------------9--9-9-7--7-7-6--------|--| 2-----
D|---------------------------------------|--| 2-----
A|---------------------------------------|---------|
E|---------------------------------------|---------|

Glosario de acordes:

Glosario de Simbolos:
. : Staccato
^ : Rasgueo hacia abajo
Composición de Alvaro Henriquez
63 vistas
    • ½ Tono
    • A
    • Bb
    • B
    • C
    • Db
    • D
    • Eb
    • E
    • F
    • F#
    • G
    • Ab
  • Agregar a la lista

    0 comentarios

    Ver todos los comentarios

    ¿Lograste tocar?

    0 Tocaron 0 Aún no

    ¡Graba un video tocando Amor Violento y envíanoslo!

    00:00 / 00:00
    Outros vídeos desta música
    Repetir Calidad Automático
    Outros vídeos desta música
    00:00 / 00:00
    Automático
    OK