Cifra Club

Amores incompletos

Los Tres

Cifrado: Principal (guitarra y guitarra eléctrica)
Selo Cifra Club: esta cifra foi revisada para atender aos critérios oficiais da nossa Equipe de Qualidade.
tono: Am
Intro:

   Am C6 Am C6 Dm F6 Dm F6 Am C6 E7sus4
E|---------------1---1--1--1----------------|
B|--1---1--1--1--3---3--3--3--1---1---------|
G|--2---2--2--2--2---2--2--2--2---2--2------|
D|--2---2--2--2----0-3-----3--2---2---------|
A|----0-3-----3-----------------0-3--2------|
E|------------------------------------------|

   Am C6 Am C6 Dm F6 Dm F6 Dm F6 D* Am C6 Am C6 Am C6 E7sus4
E|---------------1---1--1---1--1---1--1---------------------------|
B|--1---1--1--1--3---3--3---3--3---3--3---1---1--1--1--1---1-------|
G|--2---2--2--2--2---2--2---2--2---2------2---2--2--2--2---2--2----|
D|--2---2--2--2----0-3------3----0-3--2-0-2---2--2--2--2---2-------|
A|----0-3-----3-----------------------------0-3-----3----0-3--2-0--|
E|---------------------------------------------------------------|

  Em Em/G Dm F6 Dm F6 Am C6 Am C6 Am Em
E|----------1---1--1--1---------------------|
B|----------3---3--3--3--1---1--1--1--1-----|
G|----------2---2--2--2--2---2--2--2--2-----|
D|-2---2--2---0-3-----3--2---2--2--2--2--2--|
A|-2---2-------------------0-3-----3-----2--|
E|---0-3--2---------------------------------|


  Am     C6 Am C6 Dm
Amores incompletos
     F6 Dm     F6 Am   C6 Am C6 Am C6 Am
He tenido por montones
C6 Dm    F6 Dm F6
Y Aún me penan
Dm  F6 D* Am C6 Am C6 Am C6 E7sus4
Aún me penan
Em Em/G           Dm
Han turbado mi mente
    F6      Dm F6 Am C6 Am C6 Em
Fusilado mis Ganas


           Am         C6    Am C6 Dm
Me estoy secando lentamente
       F6        Dm F6        Am C6 Am C6 Am C6 Am
Debilitando y muriendo irremediablemente
C6 Dm          F6 Dm F6
Amores incompletos
 Dm     F6      D*  Am C6 Am C6 Am C6 E7sus4
Me anularon por errores
Em Em/G           Dm F6 Dm F6 Am C6 Am C6 E7sus4
Agrietaron Ilusiones.


Solo (x2)

Am C6 Am C6 Dm F6 Dm F6 Am C6 Am C6 Am C6 Dm F6 Dm F6 Dm F6 D*
Am C6 Am C6 E7sus4 Em Em/G Dm F6 Dm F6 Am C6 Am C6 Am Em


  Am     C6 Am C6 Dm
Amores incompletos
     F6 Dm     F6 Am   C6 Am C6 Am C6 Am
He tenido por montones
C6 Dm    F6 Dm F6
Y Aún me penan
Dm  F6 D* Am C6 Am C6 Am C6 E7sus4
Aún me penan
Em Em/G           Dm
Amores Incompletos
    F6      Dm F6 Am C6 Am C6 Em
Amores Incompletos


Am
Sin mirarme me quebraste
       Dm               Am
Sin Sentirte me Golpeaste
       Dm
Con tu Alma aparece
                       Am
Con el mal se retuerce
Em
Amores Incompletos
              Dm   Am
Amores Incompletos
Otros videos de esta canción
    1.795 exhibiciones
      • ½ Tono
      • Am
      • Bbm
      • Bm
      • Cm
      • C#m
      • Dm
      • Ebm
      • Em
      • Fm
      • F#m
      • Gm
      • G#m
    • Agregar a la lista

    Afinação da cifra

    Afinador online

      Ops (: Contenido disponible solo en portugués.
      OK