Cifra Club

Bailando en Conchalí

Los Tres

Cifrado: Principal (guitarra y guitarra eléctrica)
Selo Cifra Club: esta cifra foi revisada para atender aos critérios oficiais da nossa Equipe de Qualidade.
tono: Am
E|---------------------------------|
B|---------------------------------|
G|---------------------------------|
D|------------3--0h3-0-------------| x 6
A|-------2-5-----------------------|
E|---3---------------------3-------|


E|---------------------------------|
B|---8---10====---8---10====-------|
G|---7----9====---7----9====-------|
D|---8---10====---8---10====-------|
A|---------------------------------|
E|---------------------------------|


E|-10-12-10-------10-12-10----8-10-8------8-10-8---7-8-7-----7-8-7-7---|
B|-10----------10------------10--------10----------8-------8-----------|
G|-10-------10----------------9------9-------------7-----7-------------|
D|---------------------------------------------------------------------|
A|---------------------------------------------------------------------|
E|---------------------------------------------------------------------|


E|---------------------------------|
B|---8---10-10-----8---10-10-------|
G|---7----9--9-----7----9--9-------|
D|---8---10-10-----8---10-10-------|
A|---------------------------------|
E|---------------------------------|



E|-10-12-10-------10-12-10----8-10-8------8-10-8---7-8-7-----7-8-7-7---|
B|-10----------10------------10--------10----------8-------8-----------|
G|-10-------10----------------9------9-------------7-----7-------------|
D|---------------------------------------------------------------------|
A|---------------------------------------------------------------------|
E|---------------------------------------------------------------------|


E|---------------------------------|
B|---8---10-10-----8---10-10-------|
G|---7----9--9-----7----9--9-------|
D|---8---10-10-----8---10-10-------|
A|---------------------------------|
E|---------------------------------|


E|--------------------------------------------|
B|--------------------------------------------|
G|-----------12----------12----------12-------|
D|------9-12--------9-12--------9-12----------|
A|---10----------10----------10---------------|
E|--------------------------------------------|


E|-----------------------------------------------------------|
B|---10-12-10-------10-12-10-----8-10-8------8-10-8----------|
G|----9-----------9--------------7---------7-----------------|
D|---10--------10----------------8-------8-------------------| x 2
A|-----------------------------------------------------------|
E|-----------------------------------------------------------|


E|-----------------7------5------3------12---8===-----|
B|---------------8------6------3--------11--10===-----|
G|-------------7------5------3----------12---9===-----|
D|------9-12------------------------------------------|
A|---10-----------------------------------------------|
E|----------------------------------------------------|



E|-10-12-10-------10-12-10----8-10-8------8-10-8---7-8-7-----7-8-7-7---|
B|-10----------10------------10--------10----------8-------8-----------|
G|-10-------10----------------9------9-------------7-----7-------------|
D|---------------------------------------------------------------------|
A|---------------------------------------------------------------------|
E|---------------------------------------------------------------------|


E|---------------------------------|
B|---8---10-10-----8---10-10-------|
G|---7----9--9-----7----9--9-------|
D|---8---10-10-----8---10-10-------|
A|---------------------------------|
E|---------------------------------|



E|-10-12-10-------10-12-10----8-10-8------8-10-8---7-8-7-----7-8-7-7---|
B|-10----------10------------10--------10----------8-------8-----------|
G|-10-------10----------------9------9-------------7-----7-------------|
D|---------------------------------------------------------------------|
A|---------------------------------------------------------------------|
E|---------------------------------------------------------------------|


E|---------------------------------|
B|---8---10-10-----8---10-10-------|
G|---7----9--9-----7----9--9-------|
D|---8---10-10-----8---10-10-------|
A|---------------------------------|
E|---------------------------------|


E|--------------------------------------------|
B|--------------------------------------------|
G|-----------12----------12----------12-------|
D|------9-12--------9-12--------9-12----------|
A|---10----------10----------10---------------|
E|--------------------------------------------|


E|-----------------------------------------------------------|
B|---10-12-10-------10-12-10-----8-10-8------8-10-8----------|
G|----9-----------9--------------7---------7-----------------|
D|---10--------10----------------8-------8-------------------|
A|-----------------------------------------------------------|
E|-----------------------------------------------------------|


E|--------------------------------------------------------------|
B|---10-12-10-------10-12-10-----12-13-12--------12-13-12-------|
G|----9-----------9--------------11-----------11----------------|
D|---10--------10----------------12--------12-------------------| x 2
A|--------------------------------------------------------------|
E|--------------------------------------------------------------|


E|-----------------------------------------------------------|
B|---10-12-10-------10-12-10-----8-10-8------8-10-8----------|
G|----9-----------9--------------7---------7-----------------|
D|---10--------10----------------8-------8-------------------|
A|-----------------------------------------------------------|
E|-----------------------------------------------------------|


E|-----------------7------5------3------12---8--------|
B|---------------8------6------3--------11--10--------|
G|-------------7------5------3----------12---9--------|
D|------9-12------------------------------------------|
A|---10-----------------------------------------------|
E|----------------------------------------------------|


E|---------------------------------|
B|---------------------------------|
G|---------------------------------|
D|------------3--0h3-0-------------| x 5
A|-------2-5-----------------------|
E|---3---------------------3-------|


E|---------------------------------|
B|---8---10====---8---10====-------|
G|---7----9====---7----9====-------|
D|---8---10====---8---10====-------|
A|---------------------------------|
E|---------------------------------|




E|-10-12-10-------10-12-10----8-10-8------8-10-8---7-8-7-----7-8-7-7---|
B|-10----------10------------10--------10----------8-------8-----------|
G|-10-------10----------------9------9-------------7-----7-------------|
D|---------------------------------------------------------------------|
A|---------------------------------------------------------------------|
E|---------------------------------------------------------------------|


E|---------------------------------|
B|---8---10-10-----8---10-10-------|
G|---7----9--9-----7----9--9-------|
D|---8---10-10-----8---10-10-------|
A|---------------------------------|
E|---------------------------------|



E|-10-12-10-------10-12-10----8-10-8------8-10-8---7-8-7-----7-8-7-7---|
B|-10----------10------------10--------10----------8-------8-----------|
G|-10-------10----------------9------9-------------7-----7-------------|
D|---------------------------------------------------------------------|
A|---------------------------------------------------------------------|
E|---------------------------------------------------------------------|


E|---------------------------------|
B|---8---10-10-----8---10-10-------|
G|---7----9--9-----7----9--9-------|
D|---8---10-10-----8---10-10-------|
A|---------------------------------|
E|---------------------------------|


E|--------------------------------------------|
B|--------------------------------------------|
G|-----------12----------12----------12-------|
D|------9-12--------9-12--------9-12----------|
A|---10----------10----------10---------------|
E|--------------------------------------------|



E|-----------------------------------------------------------|
B|---10-12-10-------10-12-10-----8-10-8------8-10-8----------|
G|----9-----------9--------------7---------7-----------------|
D|---10--------10----------------8-------8-------------------|
A|-----------------------------------------------------------|
E|-----------------------------------------------------------|


E|--------------------------------------------------------------|
B|---10-12-10-------10-12-10-----12-13-12--------12-13-12-------|
G|----9-----------9--------------11-----------11----------------|
D|---10--------10----------------12--------12-------------------| x 2
A|--------------------------------------------------------------|
E|--------------------------------------------------------------|


E|-----------------------------------------------------------|
B|---10-12-10-------10-12-10-----8-10-8------8-10-8----------|
G|----9-----------9--------------7---------7-----------------|
D|---10--------10----------------8-------8-------------------|
A|-----------------------------------------------------------|
E|-----------------------------------------------------------|


E|-----------------7------5------3------12---8--------|
B|---------------8------6------3--------11--10--------|
G|-------------7------5------3----------12---9--------|
D|------9-12------------------------------------------|
A|---10-----------------------------------------------|
E|----------------------------------------------------|



E|-10-12-10-------10-12-10----8-10-8------8-10-8---7-8-7-----7-8-7-7---|
B|-10----------10------------10--------10----------8-------8-----------|
G|-10-------10----------------9------9-------------7-----7-------------|
D|---------------------------------------------------------------------|
A|---------------------------------------------------------------------|
E|---------------------------------------------------------------------|


E|---------------------------------|
B|---8---10-10-----8---10-10-------|
G|---7----9--9-----7----9--9-------|
D|---8---10-10-----8---10-10-------|
A|---------------------------------|
E|---------------------------------|




E|-10-12-10-------10-12-10----8-10-8------8-10-8---7-8-7-----7-8-7-7---|
B|-10----------10------------10--------10----------8-------8-----------|
G|-10-------10----------------9------9-------------7-----7-------------|
D|---------------------------------------------------------------------|
A|---------------------------------------------------------------------|
E|---------------------------------------------------------------------|


E|---------------------------------|
B|---8---10-10-----8---10-10-------|
G|---7----9--9-----7----9--9-------|
D|---8---10-10-----8---10-10-------|
A|---------------------------------|
E|---------------------------------|


E|--------------------------------------------|
B|--------------------------------------------|
G|-----------12----------12----------12-------|
D|------9-12--------9-12--------9-12----------|
A|---10----------10----------10---------------|
E|--------------------------------------------|


E|-----------------------------------------------------------|
B|---10-12-10-------10-12-10-----8-10-8------8-10-8----------|
G|----9-----------9--------------7---------7-----------------|
D|---10--------10----------------8-------8-------------------|
A|-----------------------------------------------------------|
E|-----------------------------------------------------------|


E|--------------------------------------------------------------|
B|---10-12-10-------10-12-10-----12-13-12--------12-13-12-------|
G|----9-----------9--------------11-----------11----------------|
D|---10--------10----------------12--------12-------------------| x 2
A|--------------------------------------------------------------|
E|--------------------------------------------------------------|


E|-----------------------------------------------------------|
B|---10-12-10-------10-12-10-----8-10-8------8-10-8----------|
G|----9-----------9--------------7---------7-----------------|
D|---10--------10----------------8-------8-------------------|
A|-----------------------------------------------------------|
E|-----------------------------------------------------------|


E|---------------0-0-0--0-0-0--0-0-0--0-0-0--0===========--------|
B|---------------3-3-3--1-1-1--0-0-0--3-3-3--1===========--------|
G|---------------4-4-4--2-2-2--1-1-1--2-2-2--0===========--------|
D|------9-12-----5-5-5--3-3-3--2-2-2--0-0-0--2===========--------|
A|---10----------5-5-5--3-3-3--2-2-2--0-0-0--3===========--------|
E|---------------0-0-0--0-0-0--0-0-0--0-0-0--0===========--------|
Otros videos de esta canción
    26 exhibiciones
      • ½ Tono
      • Am
      • Bbm
      • Bm
      • Cm
      • C#m
      • Dm
      • Ebm
      • Em
      • Fm
      • F#m
      • Gm
      • G#m
    • Agregar a la lista

    Afinação da cifra

    Afinador online

      Ops (: Contenido disponible solo en portugués.
      OK