Cifra Club

Bip Bip

Los Tres

Cifrado: Principal (guitarra y guitarra eléctrica)
Selo Cifra Club: esta cifra foi revisada para atender aos critérios oficiais da nossa Equipe de Qualidade.
tono: Dm
Intro: G   -riff1

             F -G               A# -A -G  
Ahí viene gente que no quiero ver
             F -G                          A# -A -A# 
Siempre es lo mismo y no voy a aprender
Riff2(La#)                     Riff3(La)
A ver el mundo desde otros pies
        F -G                   F -G  -riff1
El vértigo mata y a ti también

(Mismos acordes)
Ahí viene gente que habla de mi
Estupidez eterna habrá que resistir
El aburrimiento es lo que perdí
Y es así me muero de ganas
           F -G                ARMONICO EN G  
De verte sangrando aquí

F  - G  
Bip bip x 4

(Mismos acordes)
Un martillo roto por un clavo soy
Un hacha hecha pedazos por un árbol soy
No importa lo que digas solo importo yo
Tengo tantas cicatrices que ya no hay dolor

Solo (aun no lo saco lo siento amigos)

Hay gente buena que da igual
Solo sol (luego todo sigue igual)
Hay gente mala que es la que importa más
Tengo pocos amigos pero son de verdad
Ese es el punto y no hay que olvidar
Ese es el punto que no hay que olvidar


Riff1
E|-----------------------------------------------------------------------|
B|-----------------------------------------------------------------------|
G|-----------------------------------------------------------------------|
D|----5-----------3------------------------------------------------------|
A|-------3----5------3---5---1-------------------------------------------|
E|---------------------------------1---3---------------------------------|

Riff2
E|-----------------------------------------------------------------------|
B|-----------------------------------------------------------------------|
G|-----------------------------------------------------------------------|
D|---8---------6---------------------7---------5-------------------------|
A|-----6---8------6----8----6----------5---7------5----7----5*-----------|
E|----------------------------6---5----------------------------5-----3---|
Ojo q en la ultima parte se queda en 5 donde esta el asterisco
Otros videos de esta canción
    24 exhibiciones
      • ½ Tono
      • Am
      • Bbm
      • Bm
      • Cm
      • C#m
      • Dm
      • Ebm
      • Em
      • Fm
      • F#m
      • Gm
      • G#m
    • Agregar a la lista

    Afinação da cifra

    Afinador online

      Ops (: Contenido disponible solo en portugués.
      OK