Cifra Club

Carcel hospital y cementerio

Los Tres

Cifrado: Principal (guitarra y guitarra eléctrica)
Selo Cifra Club: esta cifra foi revisada para atender aos critérios oficiais da nossa Equipe de Qualidade.
tono: Am
Introducción :(ambas guitarras)

E||----------------------------|
B||----------------------------|
G||----------------------------|
D||--2--2--2---2--2--2--2---2--|
A||--0--0--2S--3--0--0--2S--3--|
E||----------------------------|

E|--------------------------| |
B|--------------------------| |
G|--------------------------| |
D|--2--2--2---2--2----------| |
A|--0--0--2S--3--0--2-------| |
E|------------------0-------| |

La guitarra ritmica toca los acordes en posición de 5

Estrofas:

Lam (se toca como en la introducción pero sin el Mi)
He sido Pordiosero y Mendigo
He sido Capitán de la Fragata

Dm                  E7 
Ladrón, mentiroso y canalla
    Am 
Un vil roedor y un calaca
   E7                      Dm 
Tengo predilección por el Desastre
   Am 
Y todo por tu amor querida mía

Corría la mitad ya de mi Vida
Los años multiplicaban la ira
Un chuzo, una palanca y una silla
Terminaron por apagar muchas vidas
Tengo predilección por la Tragedia
Y todo por tu amor querida mía

La guitarra solista toca estos acordes:

    Am   Dm   E7 
E||--5----5----0----|-------||
B||--5----6----5----|-------||
G||--5----7----7----|-------||
D||--7----7----6----|-------||
A||--7----5----7----|-------||
E||--5--------------|-------||

Escuchen bien la canción para tocar bien el rasgueo.

Coro:( Guitarra Ritmica)

Dm 
Te conocí entre mucha gente
  Am 
Te escogí al verte de frente
   B7                F 
Y mientras me miraba acariciaba
   B7 
La idea de quedarme aquí

Dm 
Una flor me hizo recordarte
  Am 
El pastizal donde fui tu amante
  B7                     F 
Y mientras se quemaba yo juraba
  E7 
Matar y Robar por ti

(Guitarra solista)

     Dm 
     H        Q    Q
E||--5--------8----7----|
B||--6--------6----6----|
G||--7--------7----7----|
D||--7--------7----7----|
A||--5--------5----5----|
E||---------------------|


  Am                    B7       F 
  H        Q    Q       H        H
E|--5--------7----5----|--2--------1--------|
B|--5--------5----5----|--4--------1--------|
G|--5--------5----5----|--2--------2--------|
D|--7--------7----7----|--4--------3--------|
A|--7--------7----7----|--2--------3--------|
E|--5--------5----5----|-----------1--------|


   B7                  Dm 
   W                   H        Q    Q
E|---7----------------|--5--------8----7----|
B|--10----------------|--6--------6----6----|
G|---8----------------|--7--------7----7----|
D|---7----------------|--7--------7----7----|
A|---9----------------|--5--------5----5----|
E|---7----------------|---------------------|


  Am                    B7       F 
  H        Q    Q       H        H
E|--5--------7----5----|--2--------1--------|
B|--5--------5----5----|--4--------1--------|
G|--5--------5----5----|--2--------2--------|
D|--7--------7----7----|--4--------3--------|
A|--7--------7----7----|--2--------3--------|
E|--5--------5----5----|-----------1--------|


   B7       E7 
   H        H
E|---7--------7--------| |
B|--10--------9--------| |
G|---8--------7--------| |
D|---7--------9--------| |
A|---9--------7--------| |
E|---7-----------------| |

Son los mismo acordes pero con algunos arreglos.

Punteo Intrumental: (ambas guitarras)

E||-----------------------|
B||-----------------------|
G||*----------------------|
D||*--2----2----4----2----|
A||---0----3----5----3----|
E||-----------------------|

                       3x
E|-----------------------| |
B|-----------------------| |
G|----------------------*| |
D|--2-------------------*| |
A|--0--------------------| |
E|-------0----3----4-----| |


E|-----------------------------|
B|-----------------------------|
G|-----------------------------|
D|--2--2----2--2----2----2--2--|
A|--0--0--2| g3--0----0--2g3--0--|
E|-----------------------------|


E|-----------------------------| |
B|-----------------------------| |
G|-----------------------------| |
--L--2----2--2----2----2-----||
--L--0--2g3--0----0--2g3-----||
E|-----------------------------| |

Prefiero la Hecatombe a estar tranquilo
Me quedo con el Hurto y la Calumnia
Hoy robo por amor y también mato
Yo cierro las cortinas de la gente
Decido yo quién vive y quién muere
Te voy a hacer feliz hasta la muerte

He sido Traidor y turbulento
He sido Pecador sin sentimientos
He estado acusado en el banquillo
Yo soy el Príncipe en el castillo
Y nunca tendré yo remordimientos
Y todo por tu amor querida mía

Te conocí entre mucha gente
Te escogí al verte de frente
Y mientras me miraba acariciaba
La idea de quedarme aquí

Una flor me hizo recordarte
El pastizal donde fui tu amante
Y mientras se quemaba yo juraba
Matar y Robar por ti

*El solo tocan los acordes de la Estrofa*

Te conocí entre mucha gente
Te escogí al verte de frente
Y mientras me miraba acariciaba
La idea de quedarme aquí

Una flor me hizo recordarte
El pastizal donde fui tu amante
Y mientras se quemaba yo juraba
Matar y Robar por ti
Otros videos de esta canción
    420 exhibiciones
      • ½ Tono
      • Am
      • Bbm
      • Bm
      • Cm
      • C#m
      • Dm
      • Ebm
      • Em
      • Fm
      • F#m
      • Gm
      • G#m
    • Agregar a la lista

    Afinação da cifra

    Afinador online

      Ops (: Contenido disponible solo en portugués.
      OK