Cifra Club

Despidete con un beso

Los Tres

Cifrado: Principal (guitarra y guitarra eléctrica)
Selo Cifra Club: esta cifra foi revisada para atender aos critérios oficiais da nossa Equipe de Qualidade.
tono: F
INTRO:  C      C 


E|-----------------------|
B|---5/////8---13//////8-|
G|-----------------------|

Quedar sin ti .......G------------|
E|------------|
B|---5//////8-|

Note  preguntare  G--------------|
E|---12/////11--|
B|--------------|

Pues yo me lo busque G-----------------|
E|---8/////11///10-|
B|-----------------|

AQUÍ YA BG UE EL CORO OK
OJO SON TD S NOTAS A  QUE SE HACEN EN CORO
WE ojo we dale los tiempo cada acorde abajo tiene su arreglo ok
El coro son 3 veces o sea que el circulo de abajo son 3 veces
ok

CORO .- F  - F  menor - C  - C7  septima y se repite

Despidete.................

        F           F  menor      C            C7  septima

E|---------------------------------------------------|
B|---5///10------5///13-------13///5--------5////17--|
G|---5///10------5///13-------13///5--------5////17--|

LUEGO B  QUE EL G  O DE GUITARRA JEJEJE
/ slide  v vbrato NOTA B  NO LE ENTIENDES A A 
LETRAS TOCA EL SEGUNC  NUMERO EJEM
10/12 TOCAS EL 12. OK

G  O :- F  - F  menor - C  - C7  septima  dos vece y termina el A  s
Sostenido ok

E|-10/12-10/12-10/12-v-10-v---10/12-10-8-10/12-10-12-12-12-10-v-|
B|--------------------------------------------------------------|
G|--------------------------------------------------------------|

E|-8-7-10-v---8-v---10-8-7-8-10-10-10----8-v-|
B|-------------------------------------------| EL G  O
G|-------------------------------------------| SE D PITE

        A#

E|---8-7-6-v---| el solo we.
B|-------------| ojo we esto lo hace después de que repite dos veces
G|-------------|

Y PUES SE D PITE OTRA VEZ  TODA A  CANCION
CON TOC  Y EL G  O WE JEJEJ OK

LO QUE BG UE LO HACE EN DESPUES TE QUE D PITE EL G  O
C S VECES PARA TERE NAR

FINAL : F  - F  menor - C 

E|-------------------------------/////15-v-|
B|-5///13-----18////9-----13////12---------|
G|-----------------------------------------|
Otros videos de esta canción
    239 exhibiciones
      • ½ Tono
      • A
      • Bb
      • B
      • C
      • Db
      • D
      • Eb
      • E
      • F
      • F#
      • G
      • Ab
    • Agregar a la lista

    Afinação da cifra

    Afinador online

      Ops (: Contenido disponible solo en portugués.
      OK