Cifra Club

El Arrepentido

Los Tres

Cifrado: Principal (guitarra y guitarra eléctrica)
Selo Cifra Club: esta cifra foi revisada para atender aos critérios oficiais da nossa Equipe de Qualidade.
tono: E

Intro
E|-----------------|---------------|----------------------|
B|-----------------|---------------|----------------------|
G|-----6-----------|---------------|-----6--------------9-|
D|-7-7---9-7-6-----|----4----------|-7-7---9-7-6-----6-9--|
A|-------------9-7-|-5-5--7-5-4----|-------------9-7------|
E|-----------------|------------7-5|----------------------|

E|---------------|
B|---------------|
G|---------------|
D|---2---4---6---| La-Mi X8
A|---------------|
E|-0---2---4---5-|

Caramba Que Noche Tan Silenciosa
   A                             E 
Caramba Me Tienen Detras Las Rejejas
        A                          E 
Caramba Me Tienen Detras Las Rejejas
        A                          E 
Caramba Me Matan El Veinticinco
        A                     E 
Caramba Escucha Madre Mis Quejas
        A                      E 
Caramba Que Noche Tan Silenciosa
        A                      E 
Estoy Arrepentido Tenga Presente
          A                     E 
Solo Queda El Indulto Del Presidente
                A                  E 
Estoy Arrepentido Tenga Presente
          A                     E 
Del Presidente Si ,Deme El Perdón
               A                E 
Quiero Morir Tranquilo En La Prision
                    A               E 
Se Apago La Guitarra Del Viejo Parra
         A                    E 

Este Es Mi Segundo Tab Suena Mas O
Menos Parecido Y
Como Dije Antes Si Les Gusta  Bien
Si No Mala Cuea.
Otros videos de esta canción
    721 exhibiciones
      • ½ Tono
      • A
      • Bb
      • B
      • C
      • Db
      • D
      • Eb
      • E
      • F
      • F#
      • G
      • Ab
    • Agregar a la lista

    Afinação da cifra

    Afinador online

      Ops (: Contenido disponible solo en portugués.
      OK