Cifra Club

He Barrido El Sol

Los Tres

Cifrado: Principal (guitarra y guitarra eléctrica)
Selo Cifra Club: esta cifra foi revisada para atender aos critérios oficiais da nossa Equipe de Qualidade.
tono: Cm
E|--7/10-9-10--7-6-7---------------------------7-8-------7-6-7----|
B|--------------------8-7-8--------------7-8-10---7---------------|
G|-------------------------7---------7-9--------------------------|
D|-------------------------------9-10-----------------------------|
A|----------------------------------------------------------------|
E|----------------------------------------------------------------|

E|-------------------------------------------7h8p7----------------|
B|-8-7-8---------7h8p7----------------7-8-10-------10-8-7-----7-10|
G|--------7-6-7--------9-8-7-----9-10---------------------9-8-----|
D|---------------------------9-7----------------------------------|
A|----------------------------------------------------------------|
E|----------------------------------------------------------------|

E|-8-7-----------7-9-7--------------7-----8h10p8-----------7------|
B|-----8-------8-------8-------7-10--------------10-8-8-10---10---|
G|-------9-6-9-----------9-7-8------------------------------------|
D|----------------------------------------------------------------|
A|----------------------------------------------------------------|
E|----------------------------------------------------------------|

E|---------------------5------3------2------------3----------2--3-|
B|-7-8-9-7--------------------------------(0)-------3-3-4-3--2--3-|
G|---------9--(0)--4/6--6-0-4--4-0-2---2-1-0-----------------3--4-|
D|----------------------------------------------------------------|
A|----------------------------------------------------------------|
E|----------------------------------------------------------------|
Otros videos de esta canción
    8.224 exhibiciones
      • ½ Tono
      • Am
      • Bbm
      • Bm
      • Cm
      • C#m
      • Dm
      • Ebm
      • Em
      • Fm
      • F#m
      • Gm
      • G#m
    • Agregar a la lista

    Afinação da cifra

    Afinador online

      Ops (: Contenido disponible solo en portugués.
      OK