Cifra Club

Jazz Huachaca

Los Tres

Cifrado: Principal (guitarra y guitarra eléctrica)
Selo Cifra Club: esta cifra foi revisada para atender aos critérios oficiais da nossa Equipe de Qualidade.
tono: G
E|--------------------------------------------------------------------------8-|
B|---------------------------------12-----------------------------------------|
G|-7-8-9-7-8-9-7-8-9-7-8-9-7-8-9-/-12----7-8-9-7-8-9-7-8-9-7-8-9-7-8-9--9-9---|
D|---------------------------------12-----------------------------------------|
A|----------------------------------------------------------------------------|
E|----------------------------------------------------------------------------|

E|--------------------------------------------8---|
B|------------------------------------------------|
G|-9-10-11-9-10-11-9-10-11-9-10-11-9-10-11--9-----|
D|------------------------------------------------|
A|------------------------------------------------|
E|------------------------------------------------|

E|------------------------------------------------|
B|---------------------------------12-------------|
G|-7-8-9-7-8-9-7-8-9-7-8-9-7-8-9-/-12-------------|
D|---------------------------------12-------------|
A|------------------------------------------------|
E|------------------------------------------------|

E|---------------------------------------------10------10----10------------|
B|--------------------------------------------------12----12----12--10--8--|
G|-9-10-11-9-10-11-9-10-11-9-10-11-9-10-11--11-----------------------------|
D|-------------------------------------------------------------------------|
A|-------------------------------------------------------------------------|
E|-------------------------------------------------------------------------|

E|----------------------------------------------------------|
B|-------8----8---8---8---------------------------------12--|
G|-7-8-9----9---9---9---7-8-9-7-8-9-7-8-9-7-8-9-7-8-9-/-12--|
D|------------------------------------------------------12--|
A|----------------------------------------------------------|
E|----------------------------------------------------------|

E|-----------------------------------8------------|
B|------------------------------------------------|
G|-7--8-9-7-8-9-7-8-9-7-8-9-7-8-9--9--------------|
D|------------------------------------------------|
A|------------------------------------------------|
E|------------------------------------------------|

E|--------------------------------------------8---|
B|------------------------------------------------|
G|-9-10-11-9-10-11-9-10-11-9-10-11-9-10-11--9-----|
D|------------------------------------------------|
A|------------------------------------------------|
E|------------------------------------------------|

E|------------------------------------------------|
B|---------------------------------12-------------|
G|-7-8-9-7-8-9-7-8-9-7-8-9-7-8-9-/-12-------------|
D|---------------------------------12-------------|
A|------------------------------------------------|
E|------------------------------------------------|

E|---------------------------------------------10------10----10------------|
B|--------------------------------------------------12----12----12--10--8--|
G|-9-10-11-9-10-11-9-10-11-9-10-11-9-10-11--11-----------------------------|
D|-------------------------------------------------------------------------|
A|-------------------------------------------------------------------------|
E|-------------------------------------------------------------------------|

E|--------------------------------------------------------------------------|
B|-------8----8---8-------10--10----10-10-10--------10-10-10---12-12-12-----|
G|-7-8-9----9---9----7--9--9---9-----9--9--9--7--9---9--9--9---11-11-11-----|
D|------------------------10---9/10-10-10-10--------10-10-10---12-12-12-----|
A|--------------------------------------------------------------------------|
E|--------------------------------------------------------------------------|

E|------------------------------------------------|
B|-8---8-----11-11-11-11--8^^^----8---8---8---8---|
G|---9----9---9--9--9--9--------9---9---9---9-----|
D|-----------12-12-12-12--------------------------|
A|------------------------------------------------|
E|------------------------------------------------|

E|-------------------------------------------------------|
B|------10---10-----10-10-10--------10-10-10--12-12-12---|
G|-7--9--9----9------9--9--9--7--9---9--9--9--11-11-11---|
D|------10----9/10--10-10-10--------10-10-10--12-12-12---|
A|-------------------------------------------------------|
E|-------------------------------------------------------|

E|---------------------------------------------------------------------|
B|-8-8-8---8-8-8--11-11-11-11--8^^^----8---8---8-----------------------|
G|-------9---------9--9--9--9--------9---9---9-------------------------|
D|----------------12-12-12-12-----------------------9-10-12--9---------|
A|---------------------------------------------------------------------|
E|--------------------------------------------------------------0~-----|

E|---------------------------------------------------------------------|
B|------------------------------------------------------8^^^-7---------|
G|-9-9-8-9-8-9-8-9-8-9-8-9-7-------------------4-5-5----9-------9--7---|
D|---------------------------9-7---------4-6-7---------10--------------|
A|-------------------------------7-5-6-7---------------10--------------|
E|---------------------------------------------------------------------|

***********************************************************************

E|---------------------------------------------------------------------|
B|---------------------------------------------------------------------|
G|-7--9-10--9/11--9-----9/11--9-----9/11--9/11--9----9/11--9-----------|
D|-9-10-11-10/12-10-7--10/12-10-7--10/12-10/12-10-7-10/12-10--7~(h9)---|
A|---------------------------------------------------------------------|
E|---------------------------------------------------------------------|

E|-------------------------------|
B|-------------8^^^---8---8---8--|
G|---7---7---7------9---9---9----| x2  lo que está
D|-9---9---9---------------------| entre *
A|-------------------------------|
E|-------------------------------|
***********************************************************************

E|------------------------------------------------------------------------8-|
B|---------------------------------12---------------------------------------|
G|-7-8-9-7-8-9-7-8-9-7-8-9-7-8-9-/-12----7-8-9-7-8-9-7-8-9-7-8-9-7-8-9--9---|
D|---------------------------------12---------------------------------------|
A|--------------------------------------------------------------------------|
E|--------------------------------------------------------------------------|

E|--------------------------------------------8---|
B|------------------------------------------------|
G|-9-10-11-9-10-11-9-10-11-9-10-11-9-10-11--9-----|
D|------------------------------------------------|
A|------------------------------------------------|
E|------------------------------------------------|

E|------------------------------------------------|
B|---------------------------------12-------------|
G|-7-8-9-7-8-9-7-8-9-7-8-9-7-8-9-/-12-------------|
D|---------------------------------12-------------|
A|------------------------------------------------|
E|------------------------------------------------|

E|------------------------------------------10-------10----10------------|
B|------------------------------------------12----12----12----12--10--8--|
G|-9-10-11-9-10-11-9-10-11-9-10-11-9-10-11--11---------------------------|
D|-----------------------------------------------------------------------|
A|-----------------------------------------------------------------------|
E|-----------------------------------------------------------------------|

E|-----------------------------------------------------------------------|
B|-------8----8---8---8--------------------------------------------------|
G|-7-8-9----9---9---9----7-8-9--7-7-8-9--7-7-8-9-9-9-8-9-8-9-8-9-8-9-8-9-|
D|-----------------------------------------------------------------------|
A|-----------------------------------------------------------------------|
E|-----------------------------------------------------------------------|


E|-----------------------------------------------------------------------|
B|----------------10-10-10-12--8---8---------------8---------------------|
G|-7--8-9-9-7-9-7----------------9-----------7-9-9---9-9-8-8---7---7-8-9-|
D|---------------------------------------9-9-----------------9---9-------|
A|------------------------------------10---------------------------------|
E|-----------------------------------------------------------------------|


E|---------------------------------------------------------10-10-10-10-10-10-|
B|-8-10----10----8--8-7-7-5/7-5/7-5/7--7-8^^^-8-10^^^-10-12------------------|
G|-9-11--11--11-9---9-7-7-5/7-5/7-5/7--7-9^^^-9-11^^^-11---------------------|
D|---------------------------------------------------------------------------|
A|---------------------------------------------------------------------------|
E|---------------------------------------------------------------------------|


E|-10-10-11-12--10-10-11-12--10-10-11-12-10-------------|
B|------------------------------------------12-10-------|
G|------------------------------------------------11----|
D|---------------------------------------------------12-|
A|------------------------------------------------------|
E|------------------------------------------------------|


E|-10-10-11-12-12-10-12-10-12-10------------------|
B|-------------------------------10---------------|
G|------------------------------------------------|
D|------------------------------------------------|
A|------------------------------------------------|
E|------------------------------------------------|


E|------------------------------------------------|
B|-10-10-11-12-12-12-11-12-11-12-11-12-12----------|
G|------------------------------------------------|
D|------------------------------------------------|
A|------------------------------------------------|
E|------------------------------------------------|


E|----------------------------------------12-------------------|
B|-12-12-12-13-13-13-12-12-12-13-13-13-12----12---12-12-11-10--|
G|-------------------------------------------------------------|
D|-------------------------------------------------------------|
A|-------------------------------------------------------------|
E|-------------------------------------------------------------|


E|---------------------------------------3-3-3-3-3-3-3---|
B|-----------------10-10-10--12/---------3-3-3-3-3-3-3---|
G|-7-7-8-9-9-7-9-7-----------------------4-4-4-4-4-4-4---|
D|---------------------------------------5-5-5-5-5-5-5---|
A|---------------------------------------5-5-5-5-5-5-5---|
E|---------------------------------------3-3-3-3-3-3-3---|


E|--------------------------------------------------------------------------8-|
B|---------------------------------12-----------------------------------------|
G|-7-8-9-7-8-9-7-8-9-7-8-9-7-8-9-/-12----7-8-9-7-8-9-7-8-9-7-8-9-7-8-9--9-9---|
D|---------------------------------12-----------------------------------------|
A|----------------------------------------------------------------------------|
E|----------------------------------------------------------------------------|

E|---------------------------------------------8--|
B|--------------------------------------------10--|
G|-9-10-11-9-10-11-9-10-11-9-10-11-9-10-11--9--9--|
D|------------------------------------------------|
A|------------------------------------------------|
E|------------------------------------------------|

E|------------------------------------------------|
B|---------------------------------12-------------|
G|-7-8-9-7-8-9-7-8-9-7-8-9-7-8-9-/-12-------------|
D|---------------------------------12-------------|
A|------------------------------------------------|
E|------------------------------------------------|

E|---------------------------------------------10------10----10------------|
B|--------------------------------------------------12----12----12--10--8--|
G|-9-10-11-9-10-11-9-10-11-9-10-11-9-10-11--11-----------------------------|
D|-------------------------------------------------------------------------|
A|-------------------------------------------------------------------------|
E|-------------------------------------------------------------------------|

E|------------------------12-12-12-12-12-12-----------------------------------|
B|-------8---8---8-----10-----------------------10-10-9-10--11-11-10-11-10-11-|
G|-7-8-9---9---9---7-9----------------------7-9-------------------------------|
D|----------------------------------------------------------------------------|
A|----------------------------------------------------------------------------|
E|----------------------------------------------------------------------------|

E|---------------------------------------------------|
B|-8-8-8---8-8-8--11-11-11-11--8-8-8---8---8---8---8-|
G|-------9-----9---9--9--9--9--------9---9---9---9---|
D|----------------12-12-12-12------------------------|
A|---------------------------------------------------|
E|---------------------------------------------------|

E|-----------------------------------------------------|
B|-----10--10----10-10-10-------10-10-10--12-12-12-12--|
G|-7-9--9---9-----9--9--9--7-9---9--9--9--11-11-11-11--|
D|-----10---9/10-10-10-10-------10-10-10--12-12-12-12--|
A|-----------------------------------------------------|
E|-----------------------------------------------------|

E|---------------------------------------------------------------------|
B|-8-8-8---8-8----11-11-11-11--8^^^----8---8---8-----------------------|
G|-------9-----9---9--9--9--9--------9---9---9-------------------------|
D|----------------12-12-12-12-----------------------9-10-12--9---------|
A|---------------------------------------------------------------------|
E|--------------------------------------------------------------0~-----|

E|-----------------------------------------------------------------------|
B|------------------------------------------------------8-8-8--7---------|
G|-9-9-8-9-8-9-8-9-8-9-8-9-7-------------------4-5-5----9---------9--7---|
D|---------------------------9-7---------4-6-7---------10----------------|
A|-------------------------------7-5-6-7---------------10----------------|
E|-----------------------------------------------------------------------|

E|-10-10-10-----------10---------10--10---------10---------|
B|-10-10-10-13--------10-13----10--10---13----10---13---13-|
G|-------------9(/11)-------9--------------9----------9----|
D|---------------------------------------------------------|
A|---------------------------------------------------------|
E|---------------------------------------------------------|

E|-10-10----12----12----12-12-12^^^^^^-----|
B|-10-10--12----11----11---11--------------|
G|-11-11-----------------------------------|
D|-----------------------------------------|
A|-----------------------------------------|
E|-----------------------------------------|

E|-10-12-10-12-10-12-10-12-14--10-12-10----------12---10-12-10----------12-|
B|--------------------------------------13-10----10------------13-10----10-|
G|-----------------------------------------------11---------------------11-|
D|--------------------------------------------12---------------------12----|
A|-------------------------------------------------------------------------|
E|-------------------------------------------------------------------------|

E|--------------------------------------|
B|---------5-6-7-(/8)---(0)-------------|
G|-7-6-7-8--------------(7)-------------|
D|--------------------------------------|
A|--------------------------------------|
E|--------------------------------------|


E|--------------------------------------------------------------------------8-|
B|---------------------------------12-----------------------------------------|
G|-7-8-9-7-8-9-7-8-9-7-8-9-7-8-9-/-12----7-8-9-7-8-9-7-8-9-7-8-9-7-8-9--9-9---|
D|---------------------------------12-----------------------------------------|
A|----------------------------------------------------------------------------|
E|----------------------------------------------------------------------------|

E|---------------------------------------------8--|
B|--------------------------------------------10--|
G|-9-10-11-9-10-11-9-10-11-9-10-11-9-10-11--9--9--|
D|------------------------------------------------|
A|------------------------------------------------|
E|------------------------------------------------|

E|------------------------------------------------|
B|---------------------------------12-------------|
G|-7-8-9-7-8-9-7-8-9-7-8-9-7-8-9-/-12-------------|
D|---------------------------------12-------------|
A|------------------------------------------------|
E|------------------------------------------------|

E|---------------------------------------------10------10----10------------|
B|--------------------------------------------------12----12----12--10-----|
G|-9-10-11-9-10-11-9-10-11-9-10-11-9-10-11--11-----------------------------|
D|-------------------------------------------------------------------------|
A|-------------------------------------------------------------------------|
E|-------------------------------------------------------------------------|

   G        G6  D#7   D7    C7
E|--3--3--3--0---6--6--5--5--3--3-------|
B|--3--3--3--0---8--8--7--7--5--5-------|
G|--4--4--4--4---6--6--5--5--3--3-------| x 3
D|--5--5--5--5---8--8--7--7--5--5-------|
A|--5--5--5--5---6--6--5--5--3--3-------|
E|--3--3--3--3--------------------------|

   G         F#7       G    G7*
E|--3--3--3---2--2--2---3----3--|
B|--3--3--3---2--2--2---3----5--|
G|--4--4--4---3--3--3---4----4--|
D|--5--5--5---2--2--2---5----3--|
A|--5--5--5---4--4--4---5----5--|
E|--3--3--3---2--2--2---3----3--|
Otros videos de esta canción
    333 exhibiciones
      • ½ Tono
      • A
      • Bb
      • B
      • C
      • Db
      • D
      • Eb
      • E
      • F
      • F#
      • G
      • Ab
    • Agregar a la lista

    Afinação da cifra

    Afinador online

      Ops (: Contenido disponible solo en portugués.
      OK