Cifra Club

La Espada Y La Pared

Los Tres

Cifrado: Principal (guitarra y guitarra eléctrica)
Selo Cifra Club: esta cifra foi revisada para atender aos critérios oficiais da nossa Equipe de Qualidade.
tono: G
[Intro]

E|-12-0-0-10-0-0-9-0-0-7-0-0-5-0-0-0-3-2-1-0|  
B|------------------------------------------|
G|------------------------------------------|
D|------------------------------------------| (2x)
A|------------------------------------------|
E|------------------------------------------|

E|-10--9---7--7-----10--10--9---7--7---7-------|
B|-12--10--8--8--8--12--12--10--8----8---8--8--|
G|---------------9--------------------------9--|
D|---------------------------------------------|
A|---------------------------------------------|
E|---------------------------------------------|

E|-10--9---7--7--------------------------------|
B|-12--10--8--8--8----5-5-5-5-5-5-5-5-8P5---5--|
G|---------------9-------------------------7---|
D|---------------------------------------------|
A|---------------------------------------------|
E|---------------------------------------------| x2

Verso
E7
Hablar sin pensar, pensar sin hablar

Servicio militar, muerte cerebral

Cerrar sin abrir, primaveras mil

Una sorda feliz se jactó de nuestro fin

Puente
E|-10--9---7--7-----10--10--9---7--7---7-------|
B|-12--10--8--8--8--12--12--10--8----8---8--8--|
G|---------------9--------------------------9--|
D|---------------------------------------------|
A|---------------------------------------------|
E|---------------------------------------------|

E|-10--9---7--7--------------------------------|
B|-12--10--8--8--8----5-5-5-5-5-5-5-5-8P5---5--|
G|---------------9-------------------------7---|
D|---------------------------------------------|
A|---------------------------------------------|
E|---------------------------------------------|

Verso
E7
Tirar sin lanzar, no, no llega el dolor

Y si es lo peor, muerto vivo mejor  x2

Puente
Am Am Am Cm Bm A#m  x3
 Am  Am  Am  G  G  G

E|-10--9---7--7-----10--10--9---7--7---7-------|
B|-12--10--8--8--8--12--12--10--8----8---8--8--|
G|---------------9--------------------------9--|
D|---------------------------------------------|
A|---------------------------------------------|
E|---------------------------------------------|

E|-10--9---7--7--------------------------------|
B|-12--10--8--8--8----5-5-5-5-5-5-5-5-8P5---5--|
G|---------------9-------------------------7---|
D|---------------------------------------------|
A|---------------------------------------------|
E|---------------------------------------------|

Verso
E7
Triángulo de amor, bermuda del dolor

Disparo al corazón, burbuja del terror

Caída sin saltar, estruendo sin igual

Palabras al pasar, no hay forma de frenar

Sexo sin mirar, mi almohada puede más

Que todo tu amor que vive en mi bolsón

La saliva va, la salida viene atrás

Corte cerebral, el principio es al final

Precoro
Am             Cm Bm A#m
Consomé de callampas
Am                 G
Dulce miel de arañas
Am      G
Consomé
Am         G
Dulce miel
D        A         B
No endulza sin picar

[Refrão  ]
D       F#m        Bm   D7
La espada & la pared
G     C         Bm     A
Me atraviezan y no al revés   x2

Puente

E|-10--9---7--7-----10--10--9---7--7---7-------|
B|-12--10--8--8--8--12--12--10--8----8---8--8--|
G|---------------9--------------------------9--|
D|---------------------------------------------|
A|---------------------------------------------|
E|---------------------------------------------|

E|-10--9---7--7--------------------------------|
B|-12--10--8--8--8----5-5-5-5-5-5-5-5-8P5---5--|
G|---------------9-------------------------7---|
D|---------------------------------------------|
A|---------------------------------------------|
E|---------------------------------------------|

Verso
E7
Triángulo de amor, bermuda del dolor

Disparo al corazón, burbuja del terror

Caída sin saltar, estruendo sin igual

Palabras al pasar, no hay forma de frenar

Sexo sin mirar, mi almohada puede más

Que todo tu amor que vive en mi bolsón

La saliva va, la salida viene atrás

Corte cerebral, el principio es al final

[Refrão  ]
D       F#m        Bm   D7
La espada & la pared
G     C         Bm     A
Me atraviezan y no al revés x2

[Solo]
E|-----0-----0-----0-------7-7-7-7---|
B|-------------------------8-8-8-8---|
G|-7/9---7/9---7/9---7/9-------------|
D|-----------------------------------|
A|-----------------------------------|
E|-----------------------------------| x2

E|-----------------------------|
B|--10-8---10-8----------------|
G|-------9------9---9-8-7-4----|
D|--------------------------5~~|
A|-----------------------------|
E|-----------------------------|

E|---------------------------------------|
B|----------------------5------5------5--|
G|------5-7-7p5-7p5-7/9----7/9---7/9-----|
D|--5-7----------------------------------|
A|---------------------------------------|
E|---------------------------------------|

E|-10--10--9---8--7--6----13--13--12--11--10--9---|
B|-12--11--10--9--8--7----15--14--13--12--11--10--|
G|------------------------------------------------|
D|------------------------------------------------|
A|------------------------------------------------|
E|------------------------------------------------|

[Refrão  ]
D       F#m        Bm   D7
La espada & la pared
G     C         Bm     A
Me atraviezan y no al revés x2
Otros videos de esta canción
    8.902 exhibiciones
      • ½ Tono
      • A
      • Bb
      • B
      • C
      • Db
      • D
      • Eb
      • E
      • F
      • F#
      • G
      • Ab
    • Agregar a la lista

    Afinação da cifra

    Afinador online

      Ops (: Contenido disponible solo en portugués.
      OK