Cifra Club

La vida que yo he pasao

Los Tres

Cifrado: Principal (guitarra y guitarra eléctrica)
Selo Cifra Club: esta cifra foi revisada para atender aos critérios oficiais da nossa Equipe de Qualidade.
tono: C#m
E|-----------------------------------------------------------------------| ¦
B|-----------------------------------------------------------------------| ¦
G|---------7-----------------------------6-4---------------7-------------| ¦x2
D|-----4-7---7-4---4---------------7-6-7-----7-5-4-----4-7---7-----------| ¦
A|-5-5-----------5---7-5-4-----4-7-----------------7-5---------4---------| ¦
E|-------------------------7-5-------------------------------------------| ¦

Esta es la segunda voz. Lo mismo acá; cuando empieza se repite el 4 que vemos en la 4ta cuerda
(nota Fa#), pero después se repite tocando sólo una vez esa nota.

E|------------------------------------------------------------------------| ¦
B|---------7-----------------------------5-----------------7--------------| ¦
G|-------7---7---------------------6-5-6---7-6-4---------7---7------------| ¦
D|-4-4-7-------7-4-7-5-4---------7---------------7-5-4-7-------7----------| ¦x8
A|-----------------------7-5-4-7------------------------------------------| ¦
E|------------------------------------------------------------------------| ¦

Después que la primera guitarra toca 2 veces el punteo inicial, empieza con este otro punteo,
y la segunda guitarra sigue constante.

E|-7---7---7---7---7-5---5--5---5---5---5--7---7---7---9---9---9--5-4^5----| ¦
B|-------------------------------------------------------------------------| ¦
G|-7-7---7---7---7---6-6--6---6---6---6----7-7---7---7---7---7----6-6------| ¦
D|-------------------------------------------------------------------------| ¦
A|-------------------------------------------------------------------------| ¦
E|-------------------------------------------------------------------------| ¦


E|-5-5-5-7-9-10----10---10-10-------10-10------9-9-----7-7-----5------------| ¦
B|--------------------------------------------------------------------------| ¦
G|-6-6-6-7-9-11-11----11------11-11-------11-9-----9-7---7-7-6-6------------| ¦
D|--------------------------------------------------------------------------| ¦
A|--------------------------------------------------------------------------| ¦
E|--------------------------------------------------------------------------| ¦

E|-5-5-5-7-9-10----10---10-10-------10-10------9-9-----7-7-----5--5-3-2-0----| ¦
B|---------------------------------------------------------------------------| ¦
G|-6-6-6-7-9-11-11----11------11-11-------11-9-----9-7---7-7-6-6--6-4-2-0----| ¦
D|---------------------------------------------------------------------------| ¦
A|---------------------------------------------------------------------------| ¦
E|---------------------------------------------------------------------------| ¦

Cuando termina este punteo de la primera guitarra, la segunda comienza con la 7ma repetición
del punteo del principio, y la primera empieza hacer el punteo del principio 2 veces más.

(Traten de escuchar bien el tema porque hay cosas que no sé cómo explicarlas)

Luego la cueca tiene una modulación ya que el punteo se toca en el tono de D  Mayor, caerá a
E  Mayor. Para dicha modulación las guitarras hacen lo siguiente


1era guitarra
E|------------------| ¦
B|------------------| ¦
G|---------4--------| ¦
D|-------4---7-6-4--| ¦
A|-----6------------| ¦
E|-7-7--------------| ¦

2da guitarra

E|-------------------| ¦
B|-4-4-----4---------| ¦
G|-----6-4---6-4-----| ¦
D|---------------7---| ¦
A|-------------------| ¦
E|-------------------| ¦

Ahora viene el rasgueo en Mi Mayor pasando a Si7 para la segunda guitarra y la primera hace
este punteillo.

E|-4-4-4-4-5-6-7---7---7-7-----7-7-----7-7-5-4-4-3-4--4-4-4-4-5-4-4-2-1-2--4-4-4-3-4-3-4--------| ¦
B|---------------------------------------------------------------------------------------5-4^5--| ¦
G|-4-4-4-4-6-7-8-8---8-----8-8-----8-8-----6-4-4-4-4--4-4-4-4-6-4-4-2-2-2--4-4-4-4-4-4-4-4-4^4--| ¦
D|----------------------------------------------------------------------------------------------| ¦
A|----------------------------------------------------------------------------------------------| ¦
E|----------------------------------------------------------------------------------------------| ¦

E|-7-7-9-7-9-7-9-10--11-------11-11-------11-11----11-11-------12-12-------12-12-------------| ¦
B|-------------------------------------------------------------------------------------------| ¦
G|-9-9-9-9-9-9-9-9---11-11-11-------11-11-------11-------11-13-------13-13-------------------| ¦
D|-------------------------------------------------------------------------------------------| ¦
A|-------------------------------------------------------------------------------------------| ¦
E|-------------------------------------------------------------------------------------------| ¦
Otros videos de esta canción
    133 exhibiciones
      • ½ Tono
      • Am
      • Bbm
      • Bm
      • Cm
      • C#m
      • Dm
      • Ebm
      • Em
      • Fm
      • F#m
      • Gm
      • G#m
    • Agregar a la lista

    Afinação da cifra

    Afinador online

      Ops (: Contenido disponible solo en portugués.
      OK