Cifra Club

Libreta

Los Tres

Cifrado: Principal (guitarra y guitarra eléctrica)
Selo Cifra Club: esta cifra foi revisada para atender aos critérios oficiais da nossa Equipe de Qualidade.
tono: Am
Intro: Fig. A

Fig. B
Libreta sin tu amor
Sin razón
          Fig. C1
Libreta recorre el mar
Se juntan nubes
Hay vendaval

Fig. A

Fig. B
Libreta sin tu amor
Sin razón
   Fig. C2
Libreta recorre el mar
Se juntan nubes
Hay vendaval

D                C 
Contigo y cintillo
F    E 
Volverá
D                C 
Sin tú ra con tumor
F    E 
Se vendrá

Fig. A

Fig. B   Fig. C
Libreta recorre el mar
Se juntan nubes
Hay vendaval

Fig. A

D                C 
Contigo y cintillo
F    E 
Volverá



D                C 
Sin tú ra con tumor
F    E 
Se vendrá

Fig. A
Libreta…


Fig. A
G|-------------------------------------------------------|
D|--2--3--4--3-----------7/5--2--2-------------7/5--2--2-|
A|--0--0--0--0---5/7-7---5/3--0--0------5/7-7--5/3--0--0-|
E|---------------3/5-5----------------0-3/5-5------------|

Fig. B
G|------------------------|
D|-2--------(2)(2)------2-|
A|-0--5--3--0--0--5--3--0-|
E|------------------------|

Fig. C1
E|-----------------------------------------------|
B|-------| -10-10-9-9-8-8-----------10-10-9-9-8-8-
G|-----------------------------------------------|
D|---7-7------------------------7-7--------------|
A|---7-7------------------------7-7--------------|
E|---5-5------------------------5-5--------------|

Fig. C2
E|-----------------------------------------------|
B|--10-10-9-9-8-8---------10-10-9-9-8-8----------|
G|-----------------------------------------------|
D|---------------------7-7-------------------7-7-|
A|---------------------7-7-------------------7-7-|
E|---------------------5-5-------------------5-5-|

E|------------------------------------------|
B|--10-10-9-9-8-8---------------------------|
G|-----------------------------x--x-x--5/7-|
D|---------------------7-7----2---2-2--3/5--|
A|---------------------7-7----0-| -0-0-------
E|---------------------5-5----0-------------|


Nota: Este tema suena bien a dos guitarras…
A  Fig. C1 y C2 corresponderían a la segunda.
Conociendo un poco la canción se pueden
improvisar algunos arreglos.
La verdad es que esta es una interpretación
muy personal de un simple aficionado
a las cuerdas…si les gusta bien y si no…también.
Otros videos de esta canción
    124 exhibiciones
      • ½ Tono
      • Am
      • Bbm
      • Bm
      • Cm
      • C#m
      • Dm
      • Ebm
      • Em
      • Fm
      • F#m
      • Gm
      • G#m
    • Agregar a la lista

    Afinação da cifra

    Afinador online

      Ops (: Contenido disponible solo en portugués.
      OK