Cifra Club

Morir De Viejo

Los Tres

Cifrado: Principal (guitarra y guitarra eléctrica)
Selo Cifra Club: esta cifra foi revisada para atender aos critérios oficiais da nossa Equipe de Qualidade.
tono: Am
 Am
                                  x4
E|----------|----------|---------|
B|----------|----------|---------|
G|----------|----------|---------|
D|-----3-2--|----------|-----3-2-|
A|---3------|-5-3-3-5--|---3-----|
E|-5--------|----------|-5-------|
Am
Mis ojos vienen del Aire                           
                                                    
Mis manos tiñen el Mar                              
                                                    
Mis piernas son tan largas y mi cuello es un glaciar 
                                                    
Las venas adoloridas de sangre que al gotear        
                                                    
Dejaba unas negras cansadas de arañar               
                                                    
           F
Me quema el Agua                                    

E|---5-----4-|
B|-----4-----|
G|-5-----5---|
D|-----------|
A|-----------|
E|-----------|
                                                    
             Am
Me alivia el Fuego                                  

E|-----------|
B|---5-----5-|
G|-----5-----|
D|-7-----7---|
A|-----------|
E|-----------|
                                                    
        F          Dm       G       E
Y nunca aprendo                                     

Am
                                  x4
E|----------|----------|---------|
B|----------|----------|---------|
G|----------|----------|---------|
D|-----3-2--|----------|-----3-2-|
A|---3------|-5-3-3-5--|---3-----|
E|-5--------|----------|-5-------|

Am
Otra vez tropiezo con el mismo desdén               
                                                    
Del Amor tranquilo cuando ya no existe el Bien      
                                                    
Si fueras una Bestia sería tan feliz                
                                                    
Abrazaría al Mundo y entendería al fin              
                                                    
          F
Que soy de Fuego                        

E|---5-----4-|
B|-----4-----|
G|-5-----5---|
D|-----------|
A|-----------|
E|-----------|

                                                    
     Am
y soy Eterno

E|-----------|
B|---5-----5-|
G|-----5-----|
D|-7-----7---|
A|-----------|
E|-----------|


                 F          Dm       G       E
Y no me consuelo                                    

[Solo]

 Am     E     Am  G  F  E
 Am     E     Am  G  F  E

 Am
                                   x4
E|----------|----------|---------|
B|----------|----------|---------|
G|----------|----------|---------|
D|-----3-2--|----------|-----3-2-|
A|---3------|-5-3-3-5--|---3-----|
E|-5--------|----------|-5-------|

                                                    
Am
Si no me convierto pronto en un zorzal              
                                                    
Me volveré maleza y no podré llegar                 
                                                    
A tus orillas eternas colmadas de Verdad            
                                                    
Aguacero tormentoso déjame llegar al Mar            
                                                    
     F
Para quemarme 

E|---5-----4-|
B|-----4-----|
G|-5-----5---|
D|-----------|
A|-----------|
E|-----------|

          Am
y volverme ciego                      

E|-----------|
B|---5-----5-|
G|-----5-----|
D|-7-----7---|
A|-----------|
E|-----------|

                                                    
        F          Dm       G       E
Morir de viejo                                      

 Am     E     Am  G  F  E
 Am     E     Am  G  F  E
 Am     E     Am  G  F  E
 Am     E     Am  G  F  E
Otros videos de esta canción
    727 exhibiciones
      • ½ Tono
      • Am
      • Bbm
      • Bm
      • Cm
      • C#m
      • Dm
      • Ebm
      • Em
      • Fm
      • F#m
      • Gm
      • G#m
    • Agregar a la lista

    Afinação da cifra

    Afinador online

      Ops (: Contenido disponible solo en portugués.
      OK