Cifra Club

Piratas

Los Tres

Cifrado: Principal (guitarra y guitarra eléctrica)
Selo Cifra Club: esta cifra foi revisada para atender aos critérios oficiais da nossa Equipe de Qualidade.
tono: A
Intro: x4
E|----x----x----x----x----x-x-x----1-----1-----------------------|
B|----x----x----x----x----x-x-x----1-----1-----------------------|
G|----2----2----x----x----2-2-2----1-----1-----------------------|
D|----0----0----3----3----0-0-0----1-----1-----------------------|
A|----0----0----3----3----0-0-0----1-----1-----------------------|
E|----x----x----3----3----x-x-x----1-----1-----------------------|
 *Esto mismo se repite en toda la 1° estrofa*

1° Estrofa

No piratear
Prohibido por los piratas
No piratear
Prohibido por los piratas
Piratas

2° Estrofa

*Acá Álvaro hace estas improvisaciones*
  Improvisación 1
E|---------------------------------------------------------------|
B|---------------------------------------------------------------|
G|----7/8/7-5----------------------------------------------------|
D|-----------7-5-7-5-7-5-7-5-------------------------------------|
A|---------------------------------------------------------------|
E|---------------------------------------------------------------|
  Improvisación 2
E|---------------------------------------------------------------|
B|----7/8-7/8--8-7-5---5-----------------------------------------|
G|----7/8-7/8--8-7-5---5-----------------------------------------|
D|-------------------7-------------------------------------------|
A|---------------------------------------------------------------|
E|---------------------------------------------------------------|
  Improvisación 3
E|---------------------------------------------------------------|
B|---------------------------------------------------------------|
G|---------------------------------------------------------------|
D|----7-5/7/5/7/5/7/5/7/5/7/5/7-5--------------------------------|
A|---------------------------------------------------------------|
E|---------------------------------------------------------------|
  Improvisación 4
E|---------------------------------------------------------------|
B|----7/8-7/8----7/8/7-5-----5-5-5/7-----------------------------|
G|----7/8-7/8----7/8/7-5-----5-5-5/7-----------------------------|
D|-----------------------7-5-------------------------------------|
A|---------------------------------------------------------------|
E|---------------------------------------------------------------|

Grabar
Ganando ellos
Ayudar
Ganando ellos
Firmar
Ganando ellos
Ayudar
Ganando ellos

E|---------------------------------------------------------------|
B|---------------------------------------------------------------|
G|----14-14-14-14-14-14------------------------------------------|
D|----14-14-14-14-14-14------------------------------------------|
A|---------------------------------------------------------------|
E|---------------------------------------------------------------|

[Refrão :]
E|----x----x----x----x----x-x-x----1-----1-----------------------|
B|----x----x----x----x----x-x-x----1-----1-----------------------|
G|----2----2----x----x----2-2-2----1-----1-----------------------|
D|----0----0----3----3----0-0-0----1-----1-----------------------|
A|----0----0----3----3----0-0-0----1-----1-----------------------|
E|----x----x----3----3----x-x-x----1-----1-----------------------|
*Al igual que el intro se repite 4 veces*

Piratas

Entremedio
E|---------------------------------------------------------------|
B|---------------------------------------------------------------|
G|----------0----------------------------------------------------|
D|------0-2---2-0-2----------------------------------------------|
A|----0----------------------------------------------------------|
E|---------------------------------------------------------------|
*No es tan necesario ya que lo hace el bajo*

Noventa para mí
Cinco para tí
Noventa para mí
Cinco para tí

Cbs, Alerce, Emi
E|----10---------------------------------------------------------|
B|----10---------------------------------------------------------|
G|----10---------------------------------------------------------|
D|----10---------------------------------------------------------|
A|----10---------------------------------------------------------|
E|----10---------------------------------------------------------|
*Hay uno juega con la palanca*

Final
E|----x----x----x----x----x-x-x----1-----1-----------------------|
B|----x----x----x----x----x-x-x----1-----1-----------------------|
G|----2----2----x----x----2-2-2----1-----1-----------------------|
D|----0----0----3----3----0-0-0----1-----1-----------------------|
A|----0----0----3----3----0-0-0----1-----1-----------------------|
E|----x----x----3----3----x-x-x----1-----1-----------------------|
*Se repite lo del intro hasta que termina*

Piratas, piratas, pirata, pirata
Pirata, pirata, pirata!
Otros videos de esta canción
    20 exhibiciones
      • ½ Tono
      • A
      • Bb
      • B
      • C
      • Db
      • D
      • Eb
      • E
      • F
      • F#
      • G
      • Ab
    • Agregar a la lista

    Afinação da cifra

    Afinador online

      Ops (: Contenido disponible solo en portugués.
      OK