Cifra Club

Toco Fondo

Los Tres

Cifrado: Principal (guitarra y guitarra eléctrica)
Selo Cifra Club: esta cifra foi revisada para atender aos critérios oficiais da nossa Equipe de Qualidade.
tono: Cm
Intro

A)Re#           G  - D# *
Toco fondo
D#          Fm
toco fondo, que tal tú
G#                 G#m
una nube no deja que sea azul

IV: 6 - 5 - 3  V: 6

A)Creo en sordos
creo en sordos, soy del sur
no veo risas, me alimento de luz

IV: 6 - 5 - 3  V: 6

F - Bb (x4)

B) F
Toco fondo
Bb
tal vez toqué
F                   Bb
cuando espero agua ya no tengo sed

B) Toco fondo?

Sol (I: 3 - 3   II: 6 - 4; I: 3 - 3 IV: 6 - 5 - 3  V: 6)

A)Creo en sordos
cero en sordos, soy del sur
no veo risas, me alimento de luz

A) D#            G  - D# *
Toco fondo a la orilla del mar
D#              Fm
toco fondo y me niego a nadar

C) C#              Cm
Oscuro el lamento y negro el final
C#              Cm
tengo la luna para cambiar

C)Oscuro ?.

F - Bb (x4)
B)Toco fondo
tal vez toqué
Cuando espero agua ya no tengo sed

B) Toco fondo?

No tengo sed
No tengo sed

Intro

E||--------------3--3-------3----|
B||--------------4-----4-------4-|
G||--------------4--------4-----4|
D||--6--5--3---------------------|
A||-----------6------------------|
E||------------------------------|

E|------------6---6------6-------|
B|------------4-----4-------4----|
G|------------4--------4-------4-|
D|-6--5--3-----------------------|
A|----------6--------------------|
E|-------------------------------|

Re#: X65343
Sol+: XX5443
Re#*: XXX346
Otros videos de esta canción
    342 exhibiciones
      • ½ Tono
      • Am
      • Bbm
      • Bm
      • Cm
      • C#m
      • Dm
      • Ebm
      • Em
      • Fm
      • F#m
      • Gm
      • G#m
    • Agregar a la lista

    Afinação da cifra

    Afinador online

      Ops (: Contenido disponible solo en portugués.
      OK