Cifra Club

Un Amor Violento

Los Tres

Tab de bajo: Principal
Amor Violento


::Verso:: (Se Repite muchas veces) 

G||-------|----------------------|-------------------------|-------|
D||-------|----------------------|-------------------------|-------|
A||-------|---------4-------4----|---------9----7--6--4----|-------|
E||-------|--5-----------5-------|--7----------------------|-------|


::Coro 1::

   Gastaré toda mi vida...
          C#                      F#                      C#
G||----------------------|----------------------|----------------------|
D||----------------------|----------------------|----------------------|
A||--4----4----4----4----|----------------------|--4----4----4----4----|
E||----------------------|--2----2----2----2----|----------------------|


          C#                    Bm                      Bm
----------------------|----------------------|----------------------|-------||
----------------------|----------------------|----------------------|-------||
----------------------|--2----2----2----2----|--2----2----2----2----|-------||
--2----2----2----2----|----------------------|----------------------|-------||


::Verso::


::Coro 2:: (Se Repite muchas veces)

Gastaré toda mi vida...

          C#                      F#                      C#
G||----------------------|----------------------|----------------------|
D||----------------------|----------------------|----------------------|
A||--4----4----4----4----|----------------------|--4----4----4----4----|
E||----------------------|--2----2----2----2----|----------------------|

          C#                    Bm                      Bm
----------------------|----------------------|----------------------|
----------------------|----------------------|----------------------|
----------------------|--2----2----2----2----|--0----0----0----0----|
--2----2----2----2----|----------------------|----------------------|


----------------------|----------------------||
----------------------|----------------------||
----------------------|----------------------||
--2----2----2----2----|--0----0----0----0----||


:::Verso::: (Hasta el Final)


Pd: Esta es una versión alternativa, que varios bajistas lo hacen...


*
Composición de Alvaro Henriquez
1.996 vistas

0 comentarios

Ver todos los comentarios

¿Lograste tocar?

0 Tocaron 1 Aún no

¡Graba un video tocando Un Amor Violento y envíanoslo!

00:00 / 00:00
Outros vídeos desta música
Repetir Calidad Automático
Outros vídeos desta música
00:00 / 00:00
Automático
OK