Cifra Club

Mil Anos Part. Laís

Loubet

Acordes: Principal
reproducciones 84
Tono: G
Intro: ( B9 F# E ) ( C#m E B9 C# ) ( C#m E B9 F# )


E|--------------------------------|
B|--------------------------------|
G|-666-8-6--4---4---4-4-6-6-8-8-6-|
D|------------6---6---------------|
A|--------------------------------|
E|--------------------------------|


E|-----------------------------------------------------|
B|-----------------------------------------------------|
G|-9-8-9-8-9/13-13-11--11-10h11p10-8-6-6h8p6-4-3h4-3h4-|
D|-----------------------------------------------------|
A|-----------------------------------------------------|
E|-----------------------------------------------------|


C#m                E
Quer saber eu to errado
               B9          F#
Sei fui o culpado, de tudo acabar...
C#m           E                   B9
É difícil admitir eu sempre fui assim
               F#
Mas tive que mudar...
Abm
Te ver sair daquele jeito
                 E
Todos os meu defeitos

Me fez enxergar...

B9                 C#
Sem você tudo é sem cor
              C#m
Não desligue amor
                E  F#
Antes de me escutar...

( Refrão )

B9 F# E  C#m        E
Te magoei eu sei, mudei
B9               F#
Se puder me perdoar
         C#m                 E
Vou te provar eu quero tudo outra vez
B9           F#        B9
Mil anos pra poder te amar

B9       C#m        E
Te magoei eu sei, mudei
B9               F#
Se puder me perdoar
         C#m                 E
Vou te provar eu quero tudo outra vez
B9           F#        B9
Mil anos pra poder te amar

Passagem: ( G D C  ) ( Am C G A  ) ( Am C G D )

Solo:


E|-555-7-5--3---3----3-3-5-5-7-7-5-|
B|------------5---5----------------|
G|---------------------------------|
D|---------------------------------|
A|---------------------------------|
E|---------------------------------|


E|-8-7-8-7-8/12-12-10--10-9h10p9-7-5-5h7p5-3-2h3-2h3-|
B|---------------------------------------------------|
G|---------------------------------------------------|
D|---------------------------------------------------|
A|---------------------------------------------------|
E|---------------------------------------------------|




Am                 C
Quer saber eu to errada
             G               D
Sei fui a culpada, de tudo acabar...
Am              C                 G
É difícil admitir eu sempre fui assim
               D
Mas tive que mudar...
Em
Te ver sair daquele jeito
                 C
Todos os meu defeitos

Me fez enxergar...
G                    A
Sem você tudo é sem cor
             Am
Não desligue amor
              C D
Antes de me escutar...

(Refrão )

G D C   Am          C
Te magoei eu sei, mudei
G            D
Se puder me perdoar
        Am                      C
Vou te provar eu quero tudo outra vez
G             D        G
Mil anos pra poder te amar

G      Am          C
Te magoei eu sei, mudei
G            D
Se puder me perdoar
        Am                      C
Vou te provar eu quero tudo outra vez
G             D        E    F#
Mil anos pra poder te amar

B9 F# E  C#m        E
Te magoei eu sei, mudei
B9               F#
Se puder me perdoar
         C#m                 E
Vou te provar eu quero tudo outra vez
B9           F#        B9
Mil anos pra poder te amar

B9       C#m        E
Te magoei eu sei, mudei
B9               F#
Se puder me perdoar
         C#m                 E
Vou te provar eu quero tudo outra vez
B9           F#        B9
Mil anos pra poder te amar

( B9 F# E ) ( C#m E B9 F# B9 )


E|---------------------------------|
B|---------------------------------|
G|-666-8-6--4----4---8-8-6-6-----4-|
D|-------------6---6---------4-6---|
A|---------------------------------|
E|---------------------------------|
Acordes para:
    Colaboración y revision:
    • Jean Melo
    • Jeaan
    • Daniel Cazaroti

    0 comentarios

      mostrar mas comentarios

      ¿Conseguiste tocar?

      6tocaron0aún no

      ¡Grave un vídeo tocando Mil Anos Part. Laís y envie para nosotros!

      00:00 / 00:00
      outros vídeos desta música
      repetirqualidadeautomática
      Outro vídeos desta música
        00:00 / 00:00
        automática
        OK