Enviar cifraEntrar

Pode Apostar

Loubet

Acordes: Principal
reproducciones 87
Tono: E
Intro 2x: E B C#m A


E|-------------------------------------
A|-------------------------------------
D|-------------------------------------
G|--3/4-1-4-4-4/6----------------------
B|-------------------------------------
E|-------------------------------------


E|-------------------------------------
A|-------------------------------------
D|-------------------------------------
G|-------------------------------------
B|--4/5-4--2---------------------------
E|--4/5-4--2---------------------------


E|-------------------------------------
A|-------------------------------------
D|-------------------------------------
G|-------------------------------------
B|--3/4-1-4/9-8-6----------------------
E|-------------------------------------


E|-------------------------------------
A|-------------------------------------
D|-------------------------------------
G|-------------------------------------
B|--4/5-4--2-0-------------------------
E|--4/5-4--2-0-------------------------


 E         B           C#m            A              E
Todos zombaram quando eu a vi com outro e passei mal
       B            C#m      A
Mas pra mim chega disso


E|-------------------------------------
A|-------------------------------------
D|-------------------------------------
G|-------------------------------------
B|--4/5-4--2-0-------------------------
E|--4/5-4--2-0-------------------------


E            B         C#m          A             E
Pensando bem, daqui a pouco tá chegando o carnaval
          B        C#m    A
Não quero compromisso

Pré-Refrão:
F#m                   A
Até que chegou em boa hora a despedida
F#m                   A             B
Dessa vez eu vou pro churrasco sem levar marmita

Refrão:
E      B      C#m          A                   E
Ui ui ui ai ai, vai ser um prazer te ver por lá
           B         C#m           A         E
Eu sei que vai chorar quando me ver outra vez
E       B      C#m          A                    E
Ui ui ui ai ai, vai ser um prazer te ver por lá
           B         C#m           A            E
Eu sei que vai chorar quando me ver, pode apostar

Intro: E B C#m A (2x)


E|-------------------------------------
A|-------------------------------------
D|-------------------------------------
G|--3/4-1-4-4-4/6----------------------
B|-------------------------------------
E|-------------------------------------


E|-------------------------------------
A|-------------------------------------
D|-------------------------------------
G|-------------------------------------
B|--4/5-4--2---------------------------
E|--4/5-4--2---------------------------


E|-------------------------------------
A|-------------------------------------
D|-------------------------------------
G|-------------------------------------
B|--3/4-1-4/9-8-6----------------------
E|-------------------------------------


E|-------------------------------------
A|-------------------------------------
D|-------------------------------------
G|-------------------------------------
B|--5-5-4-2-0--------------------------
E|----5-4-2-0--------------------------


 E             B           C#m            A              E
Não importa a música que tocar, eu vou beber, eu vou festar
           B    C#m  A         E
Chegou a minha vez de comemorar
E          B           C#m            A              E
Pode ser forró, sertanejo, o tal do tchibirabirum
            B       C#m      A              E
Se ela se arrepender, eu vou mandar tomar no...

Refrão:
E      B      C#m          A                   E
Ui ui ui ai ai, vai ser um prazer te ver por lá
           B         C#m           A         E
Eu sei que vai chorar quando me ver outra vez
E      B      C#m          A                   E
Ui ui ui ai ai, vai ser um prazer te ver por lá
           B         C#m           A         E
Eu sei que vai chorar quando me ver, pode apostar [x2]
  • 1
  • 2
  • 3
  • 4
  • 5
  • 6
  • 7
  • 8
  • 9
  • 10
  • 11
  • 12
    Acordes para:
      Colaboración y revision:
      • Lucas
      • Jeaan

      0 comentarios

        mostrar mas comentarios

        ¿Conseguiste tocar?

        6tocaron0aún no

        ¡Grave un vídeo tocando Pode Apostar y envie para nosotros!

        00:00 / 00:00
        outros vídeos desta música
        repetirqualidadeautomática
        • automática
        Outro vídeos desta música
          00:00 / 00:00
          automática
          • automática
          Acordes para:guitarra
          dificuldadreproduccionescontribuciones
          cerrarplay/pause subir/bajar velocidad
            acordes
            cerrar
            OK
            Feedback