Enviar cifraEntrar

Tá Rodada

Loubet

Acordes: Principal
reproducciones 528
Tono: A
Base Intro: A  E  D  E  (2x)


E|--4-/-5---5---5---5---5---7-/-9----7----5----7----4----7----9----9----7----5----2----2-----|
B|-------------------------------------------------------------------------------------------|
G|--5-/-6---6---6---6---6---7-/-9----7----6----7----5----7----9----9----7----6----2----2-----|
D|-------------------------------------------------------------------------------------------|
A|-------------------------------------------------------------------------------------------|
E|-------------------------------------------------------------------------------------------|


E|----------------------------------------------------------------------|
B|------------3-p-2-----------------------------------------------------|
G|--2-/-4---------------3-----2----3-----4-/-6---6---6---6--------------|
D|----------------------------------------------------------------------|
A|----------------------------------------------------------------------|
E|----------------------------------------------------------------------|


E|--4-/-5---5---5---5---5---7-/-9----7----5----7----4----7----9----9----7----5----2----2-----|
B|-------------------------------------------------------------------------------------------|
G|--5-/-6---6---6---6---6---7-/-9----7----6----7----5----7----9----9----7----6----2----2-----|
D|-------------------------------------------------------------------------------------------|
A|-------------------------------------------------------------------------------------------|
E|-------------------------------------------------------------------------------------------|


E|-------------------------------------------------------------------------|
B|-----------------3-p-2---------------------------------------------------|
G|--2-/-4---------------------3-----2--------------------------------------|
D|--------------------------------------------3----2---------2-/-4---------|
A|-------------------------------------------------------4-----------------|
E|-------------------------------------------------------------------------|


F#m         D           A
Quem é que vai querer ficar com você
                 E
Desse jeito eu acho que você vai mal
F#m           D          A
Vem, se entrega, começa ama
                        E
Parte pra outra e sai achando tudo natural

Bm                          D
Sem entender que quem se envolve
               A                        E
com você pode ser o grande amor da sua vida
Bm                 D                        A
Mas sua louca obsessão de viver só na curtição
                         E
Transforma tudo em despedida

Refrão:
A                E                      D
Ta rodada, ta rodada e ainda paga de gatinha
                  E                     A
Você já perdeu a linha, não existe solução
A                E                       D
Tá rodada, ta pisada e ainda vem se oferecer
                     E                           A
Outra vez tem que nascer pra conquistar meu coração

Fazer Base Da Intro:


E|--4-/-5---5---5---5---5---7-/-9----7----5----7----4----7----9----9----7----5----2----2--|
B|----------------------------------------------------------------------------------------|
G|--5-/-6---6---6---6---6---7-/-9----7----6----7----5----7----9----9----7----6----2----2--|
D|----------------------------------------------------------------------------------------|
A|----------------------------------------------------------------------------------------|
E|----------------------------------------------------------------------------------------|


E|------------------------------------------------------------------|
B|------------5-p-4-------------------------------------------------|
G|--4-/-6----------------6-----4------------------------------------|
D|-----------------------------------6-----4--------4-/-6-----------|
A|----------------------------------------------6-------------------|
E|------------------------------------------------------------------|


Abm         E           B
Quem é que vai querer ficar com você
                 F#
Desse jeito eu acho que você vai mal
Abm           E          B
Vem, se entrega, começa ama
                        F#
Parte pra outra e sai achando tudo natural

C#m                          E
Sem entender que quem se envolve
               B                        F#
com você pode ser o grande amor da sua vida
C#m                 E                        B
Mas sua louca obsessão de viver só na curtição
                         F#
Transforma tudo em despedida

Refrão:
B                F#                     E
Ta rodada, ta rodada e ainda paga de gatinha
                 F#                     B
Você já perdeu a linha, não existe solução
B                F#                       E
Tá rodada, ta pisada e ainda vem se oferecer
                    F#                           B
Outra vez tem que nascer pra conquistar meu coração
  • 1
  • 2
  • 3
  • 4
  • 5
  • 6
  • 7
  • 8
  • 9
  • 10
  • 11
  • 12
    Acordes para:

      0 comentarios

        mostrar mas comentarios

        ¿Conseguiste tocar?

        19tocaron0aún no

        ¡Grave un vídeo tocando Tá Rodada y envie para nosotros!

        00:00 / 00:00
        outros vídeos desta música
        repetirqualidadeautomática
        • automática
        Outro vídeos desta música
          00:00 / 00:00
          automática
          • automática
          Acordes para:guitarra
          dificuldadreproduccionescontribuciones
          1 versión de Guitar Proformatodownloadscontribución
          cerrarplay/pause subir/bajar velocidad
            acordes
            cerrar
            OK
            Feedback