Cifra Club

Goodbye My Love

LoveHateHero

Cifrado: Principal (guitarra y guitarra eléctrica)
tono: F
Introdução [Bb, Dm)

e|-----------------------------------------------10--------||
B|-10---------------10-----------------10-------------13---||
G|--------10----------------10-----------------------------||
D|----12----------------12------------------10-------------||
A|------------13----------------13-------------------------||
E|---------------------------------------------------------||

3x:
e|---------------------------------------------------------||
B|--10-----------------------------------------------------||
G|-----------10--------------------------------------------||
D|------12---------13--------------------------------------||
A|---------------------------------------------------------||
E|---------------------------------------------------------||

4x:
e|---------------------------------------------------------||
B|----------------------5--5-------------------------------||
G|---------------5--5--------------------------------------||
D|--------7--7---------------------------------------------||
A|-8--8----------------------------------------------------||
E|---------------------------------------------------------||

2x
e|---------------------------------------------------------||
B|-10--------------------8---------------------------------||
G|-----7--10------10--9-----10--9--------------------------||
D|------------7--------------------------------------------||
A|---------------------------------------------------------||
E|---------------------------------------------------------||

e|---------------------------------------------------------||
B|---------------------------------------------------------||
G|---7---9---10-9------------------------------------------||
D|7----7---7-----------------------------------------------||
A|---------------------8--10--8--8--10--8------------------||
E|------------------6----------------------10--------------||




  Bb
So, this isn't where you thought we'd be,
       Dm
You explained.

And now, you leave it up to me.
    Bb     C
I'll go, move on.
  Dm
We eat, We breath

We're living our dream
Bb           C
I'll find, replace with you with a better mind.
Gm           C                     Dm                   C
Oh they sing our song, they cheer us on, and make it all worthwhile.

Bb
So, this isn't where you thought we'd be,
        Dm
You explained.

And now, you leave it up to me.


refrao
              C
Farewell, my love.
Bb
Say "hello" to state lines, separate our home lives.
Dm            C
Farewell, my love.
Bb
Say "goodbye" to girlfriend, you'll text her from the road.
              C                  Dm                     C
They sing our song, they cheer us on, and make it all worthwhile.


Dm                   Bb
They always come and go.
Dm             C                  Dm                     Bb
They sing our song, they cheer us on, and make it all worthwhile. (2x)



[solo]
[Dm , Bb] 2x  Dm  C  Bb  A
Dm C  Bb


Depois volta refrao com apenas vocal +  baixo
e no fim entra guitarra.


;D
00:00 / 00:00
Otros videos de esta canción
Repetir
Otros videos de esta canción
Composición de Lovehatehero
Colaboración y revisión:
  • Thiago Souza
38 vistas
    • ½ Tono
    • A
    • Bb
    • B
    • C
    • Db
    • D
    • Eb
    • E
    • F
    • F#
    • G
    • Ab
  • Agregar a la lista

    0 comentarios

    Ver todos los comentarios

    ¿Lograste tocar?

    0 Tocaron 0 Aún no

    ¡Graba un video tocando Goodbye My Love y envíanoslo!

    00:00 / 00:00
    OK