Cifra Club

Suburban Sprawl & Alcohol

LP

Cifrado: Principal (guitarra y guitarra eléctrica)
tono: C
Intro:

(3x)
E|------------------------------|-------------------------------|
B|-----0h1---------0h1----------|----0h1--------0h1-------------|
G|------------2--------2---2----|----------2--------2---2-------|
D|---2--------------------------|--2----------------------------|
A|-0-------------0-------0---0--|-------------0-------0---0-----|
E|------------------------------|-------------------------------|

1x final do solo

E|-----------------------0------|
B|-----0h1---------------1------|
G|------------2----------2------|
D|---2-----------2-3-2-0-0------|
A|-----------------------3------|
E|-----------------------0------|

C                Em
Suburban sprawl and alcohol
 Am                         F
And what's the use in anything at all
          C                  Em
When you can't remember and you can't forget
     Am
And you want to change
     F
But you haven't yet and

    C         Em         Am
We all turn back in the end (2x)

C                Em
I couldn't wait to get away
   Am             F
From all the things I love to hate
       C             Em
Like the kitchen table and the sewing room
         Am
When it was finally over
    F
It was too soon and . . .

    C         Em         Am
We all turn back in the end (2x)

Base para o solo: ( C  Em  Am  F )

C                Em
Suburban Sprawl and alcohol
       Am                  F
And what's the use in anything at all when . . .

    C        Em          Am
We all turn back in the end (4x)

Abraços...
Composición de LP
Colaboración y revisión:
  • Andeyvson Carlos
280 vistas
    • ½ Tono
    • A
    • Bb
    • B
    • C
    • Db
    • D
    • Eb
    • E
    • F
    • F#
    • G
    • Ab
  • Agregar a la lista

    0 comentarios

    Ver todos los comentarios

    ¿Lograste tocar?

    1 Tocaron 0 Aún no

    ¡Graba un video tocando Suburban Sprawl & Alcohol y envíanoslo!

    00:00 / 00:00
    Outros vídeos desta música
    Repetir Calidad Automático
    Outros vídeos desta música
    00:00 / 00:00
    Automático
    OK