Cifra Club

Seu Taxista

Luan Estilizado

Cifrado: Principal (guitarra y guitarra eléctrica)
tono: F (con acordes en la forma de E) Capotraste en 1ª casa
Intro: B F#m E A E

Solo intro:

E|------------------------------------------------------|
A|---3-3-3-------------3-3-3--------------------5-3h5p3-|
D|----------3/5--2-2---------5-2-2--5-2-2--3-2----------|
G|------------------------------------------------------|
B|------------------------------------------------------|
E|------------------------------------------------------|

E|------------------------------------------------------|
A|------------------------------------------------------|
D|------------------------------------------------------|
G|--3/5----3/5----3/5-----------------------------------|
B|------------------------------------------------------|
E|------6------5------3---------------------------------|

B
Duas da manhã olho pro o lado e olha quem apareceu
G#m                                        E
Aquela que era meu tudo e decidiu ser nada
           C#m                       F#
Já distribuindo sorrisinhos na balada

                                 C#m
Logo hoje que eu resolvi sair de casa
                        B     A
Fechei a conta e peguei a garrafa
                           E
Entrei no taxi abri a janela
                                B
Não aguentei beber ali do lado dela
                            F#m
Mas "perai" não devo nada a ela
                                   B
Dei meia volta vou voltar para o bar
                            E
A mesma mesa e o mesmo garçom
                                   F#m
E não importa o preço que eu vou pagar
            A                    B
Só vou embora quando desligar o som

          E
Seu taxista bote ai bandeira 2
          B
Não importa o tamanho do prejuízo
                F#m
Vou terminar o litro aqui do lado dela
          A                B
Desce do carro você vai beber comigo

          E
Seu taxista bote ai bandeira 2
              B
Tô com dinheiro mas no amor eu tô perdido
                 F#m
Leve essa dose pra ela, pra secar o litro
                A                      B
Diz que tô sofrendo, e só volto para casa se ela for comigo
Compositor no encontrado.
Colaboración y revisión:
  • Belkyor carneiro
  • João Alencar
28 vistas
    • ½ Tono
    • A
    • Bb
    • B
    • C
    • Db
    • D
    • Eb
    • E
    • F
    • F#
    • G
    • Ab
  • Agregar a la lista

    0 comentarios

    Ver todos los comentarios

    ¿Lograste tocar?

    2 Tocaron 0 Aún no

    ¡Graba un video tocando Seu Taxista y envíanoslo!

    00:00 / 00:00
    Otros videos de esta canción
    Repetir Calidad Automático
    Otros videos de esta canción
    00:00 / 00:00
    Automático
    OK