Cifra Club

Solteiro Na Sexta-feira

Luan Estilizado

Cifrado: Principal (guitarra y guitarra eléctrica)
tono: D
Solo intro:

E|-----------------------------
B|---19-19-19-15-15------------
G|------------------18-16------
D|-----------------------------
A|-----------------------------
E|-----------------------------

E|-----------------------------
B|---20-20-20-15-15------------
G|------------------16-14------
D|-----------------------------
A|-----------------------------
E|-----------------------------

E|-----------------------------
B|---19-19-19-15-15------------
G|------------------16-14------
D|-----------------------------
A|-----------------------------
E|-----------------------------

E|-----------------------------
B|-----------------------------
G|---18-18-19-18-14-16---------
D|-----------------------------
A|-----------------------------
E|-----------------------------

 Cm
Fez besteira, fez besteira
B
Me deixou solteiro
                   Cm
Eim plena sexta feira   (2x)

Cm        B
Em casa eu, não fico de bobeira
                             Cm
Vou me arrumar cair na bagaçeira
Cm
Já combinei com as gatinhas
               B
Elas tão preparadas

                             Cm
Wisky e red bul e cerveja gelada
                         B
Beijar na boca / fazer amor

Aproveitar a noite
                     Cm
Que solteiro hoje eu tô
Fm           A
Já tá ligando no inibido
E
Eu sei que é a mulher
                   B
O esquema é conhecido

Cm
Vai morrer de ligar
                B
Vai morrer de ligar
                                      Cm
Só na segunda, pra você que eu vou voltar
Composición de Luan Estilizado
Colaboración y revisión:
  • Felipe Henriques
  • ronny
  • Matheus
68 vistas
    • ½ Tono
    • A
    • Bb
    • B
    • C
    • Db
    • D
    • Eb
    • E
    • F
    • F#
    • G
    • Ab
  • Agregar a la lista

    0 comentarios

    Ver todos los comentarios

    ¿Lograste tocar?

    1 Tocaron 0 Aún no

    ¡Graba un video tocando Solteiro Na Sexta-feira y envíanoslo!

    00:00 / 00:00
    Otros videos de esta canción
    Repetir Calidad Automático
    Otros videos de esta canción
    00:00 / 00:00
    Automático
    OK