Cifra Club

Vai Ficar Querendo

Luan Estilizado

Cifrado: Principal (guitarra y guitarra eléctrica)
tono: D
Intro: Bm  G  D  A (2x)

Solo:

E|-----3-6-6h8----8-6-3--------
B|---4-------------------------
G|-----------------------------
D|-----------------------------
A|-----------------------------
E|-----------------------------

E|-----3-4-3-------------------
B|---4-------6-6-4-6-6h8-------
G|-----------------------------
D|-----------------------------
A|-----------------------------
E|-----------------------------

E|-----3-6-6h8----8-6-3--------
B|---4-------------------------
G|-----------------------------
D|-----------------------------
A|-----------------------------
E|-----------------------------

E|-----3-4-3-------------------
B|---4-------6-6-4-3-3-4-1-----
G|-----------------------------
D|-----------------------------
A|-----------------------------
E|-----------------------------

E|-----------------------------
B|---1-------------------------
G|-----3-1-0-------------------
D|-----------------------------
A|-----------------------------
E|-----------------------------




Bm                 G                          D
Tá com saudades de mim, das nossas noites de paixão
                 A                     Bm
De ver o sol nascendo em cima do meu colchão
              G                   D
Andar de mãos dadas na beira da praia
               A                     Bm
desenhar um coração e ver o mar levar
                    G
Tá com saudade do carinho gostoso
 D                     A
Das nossas noites de prazer (noites de prazer)
 Bm                G
Te dava um beijo e o mundo parava
D                       A        G     A
Mas só tenho uma coisa para te dizer (Iêê)

Refrão:
Bm    G       D
Vai ficar querendo
      A
Pode morrer aí roendo
Bm    G      D
Vai ficar querendo
        A
Você sofrendo e eu bebendo (2x)

Introdução...
Compositor no encontrado.
Colaboración y revisión:
  • João Helder
  • Lays Thayná
21 vistas
    • ½ Tono
    • A
    • Bb
    • B
    • C
    • Db
    • D
    • Eb
    • E
    • F
    • F#
    • G
    • Ab
  • Agregar a la lista

    0 comentarios

    Ver todos los comentarios

    ¿Lograste tocar?

    2 Tocaron 0 Aún no

    ¡Graba un video tocando Vai Ficar Querendo y envíanoslo!

    00:00 / 00:00
    Otros videos de esta canción
    Repetir Calidad Automático
    Otros videos de esta canción
    00:00 / 00:00
    Automático
    OK