Cifra Club

Aprenda

A

Luan Santana

Tablatura: Principal (guitarra)
tono: A (con acordes en la forma de G) Capotraste na 2ª casa
[Intro] Em  C9  G  D9
        Em  C9  G  D9
 
E|------------------------------------------|
B|-----0-1/3--0----------0-1/3--0-----------|
G|-0-2----------2-0--0-2----------2---------|
D|------------------------------------------|
A|------------------------------------------|
E|------------------------------------------|

E|------------------------------------------|
B|-----0-1/3--0----------0-1/3--0-----------|
G|-0-2----------2-0--0-2----------2---------|
D|------------------------------------------|
A|------------------------------------------|
E|------------------------------------------|

[Primeira Parte]

       C9
Tá em dúvida
                                D
Não sabe se é normal gostar de dois
                             Em
Tá entre o que é e o que já foi
                          C9   D
Vou te ajudar a decidir agora, oh

       C9
Vamos lá
                               D
Suponha que eu sou A e ele é o B
                                      Em
Que assim vai ser mais fácil de entender
                             C9 D
Vou começar agora com as perguntas

[Refrão]

                 Em
Quem te leva ao céu? A
 C9                  G
Sem te tirar do colchão: A
  D                Em
Quem é que tira o seu mel? A
    C9                G  D
Te deixa molinha no chão

                    Em
Não tenha dúvida, quem? A
 C9                    G
Te traz o céu pro colchão? A
  D                Em
Quem é que tira o seu mel? A
    C9                G
Te deixa molinha no chão
D
  Acabou a sua dúvida

[Solo] Em  C9  G  D9
 
E|------------------------------------------|
B|-----0-1/3--0----------0-1/3--0-----------|
G|-0-2----------2-0--0-2----------2---------|
D|------------------------------------------|
A|------------------------------------------|
E|------------------------------------------|

[Primeira Parte]

       C9
Tá em dúvida
                                D
Não sabe se é normal gostar de dois
                             Em
Tá entre o que é e o que já foi
                          C9   D
Vou te ajudar a decidir agora, oh

       C9
Vamos lá
                               D
Suponha que eu sou A e ele é o B
                                      Em
Que assim vai ser mais fácil de entender
                             C9  
Vou começar agora com as perguntas
      D
Vamo lá, vamo lá, vamo lá, vamo lá, vamo lá

[Refrão]

                 Em
Quem te leva ao céu? A
 C9                  G
Sem te tirar do colchão: A
  D                Em
Quem é que tira o seu mel? A
    C9                G  D
Te deixa molinha no chão

                    Em
Não tenha dúvida, quem? A
 C9                    G
Te traz o céu pro colchão? A
  D                Em
Quem é que tira o seu mel? A
    C9                G
Te deixa molinha no chão
D
  Acabou a sua dúvida

   Em  C9
Quem?  A
 D                     Em
Te traz o céu pro colchão?
  G                C9
Quem é que tira o seu mel?
    D                 Em
Te deixa molinha no chão
G
  Acabou a sua dúvida

C9
  Não tem mais dúvida
D
  Não tem mais dúvida
Em                   G
  Ele é o B eu sou o A

Com quem cê vai ficar?

C9
  Não tem mais dúvida
D
  Não tenha dúvida
Em                   G
  Ele é o B eu sou o A

Com quem cê vai ficar? A
Composição de Luan Santana
Colaboración y revision:
  • Thiago Almeida
  • Lucas Sígolo
1.305 reproducciones
    • ½ Tono
    • A
    • Bb
    • B
    • C
    • Db
    • D
    • Eb
    • E
    • F
    • F#
    • G
    • Ab
  • Adicionar à lista

    0 comentarios

    Ver todos os comentários
    00:00 / 00:00
    outros vídeos desta música
    repetir qualidade Automático
    Outros vídeos desta música
    00:00 / 00:00
    Automático
    OK