Cifra Club

Aprenda

Amor de Interior (part. Camila Queiroz)

Luan Santana

Tablatura: Principal (guitarra)
tono: F
 [Intro] Bb  F  Bb  C

[Solo]

E|-5-5--8--10/13-13----------------------------------|
B|---------------------------------------------------|
G|---------------------------------------------------|
D|---------------------------------------------------|  
A|---------------------------------------------------|
E|---------------------------------------------------|

E|-10-10-10------8--8--8----6-6-6/5---5-5------------|
B|-11-11-11--- --10-10-10---8-8-8/6---6-6------------|
G|---------------------------------------------------|
D|---------------------------------------------------|  
A|---------------------------------------------------|
E|---------------------------------------------------|

E|-5-5--8--10/13-13----------------------------------|
B|---------------------------------------------------|
G|---------------------------------------------------|
D|---------------------------------------------------|  
A|---------------------------------------------------|
E|---------------------------------------------------|

E|---10--10----8--8---6-6---5--3--5------------------|
B|-11--11----10-10---8-8----6--5--6------------------|
G|---------------------------------------------------|
D|---------------------------------------------------|  
A|---------------------------------------------------|
E|---------------------------------------------------|

                              F
E|-5/6--6--6/8---8---------13------------------------|
B|------8-------10---------13------------------------|
G|---------------------------------------------------|
D|---------------------------------------------------|  
A|---------------------------------------------------|
E|---------------------------------------------------|

                    F
O que é que eu fui fazer
            
Te deixar tão longe
                  Bb
Eu com vontade de te ver

Tô juntando grana
                     Dm
Pra voltar no mês que vem

Agora mesmo eu tava olhando
                C
O preço da passagem

            F
Princípio de amor

E o padre da cidade
                   Bb
Diz que a gente combinou
                                     Dm
Estamos misturados igual feijão com arroz
                                      C
Tá vendo só eu te falei que iam ver nós dois

     F
E|--------------1------------------------------------|
B|-------1--------------1----------------------------|
G|-----2---2-------2-----------2---------------------|
D|---3-------3-------3-----------3-------------------|  
A|---------------------------------------------------|
E|-1-------------------------------------------------|

     Bb
E|---------------1-----------------------------------|
B|-------3--------------3----------------------------|
G|-----3---3-------3-----------3---------------------|
D|---3-------3-------3-----------3-------------------|  
A|-1-------------------------------------------------|
E|---------------------------------------------------|

     Dm
E|---------------5-----------------------------------|
B|-------6--------------6----------------------------|
G|-----7---7-------7-----------7---------------------|
D|---7-------7-------7-----------7-------------------|  
A|-5-------------------------------------------------|
E|---------------------------------------------------|
 
     C
E|---------------3-----------------------------------|
B|-------5--------------5----------------------------|
G|-----5---5-------5----------5----------------------|
D|---5-------5-------5----------5--------------------|  
A|-3-------------------------------------------------|
E|---------------------------------------------------|

          Bb
Amor de interior
                                 F
No interior do peito já bateu saudade
          Bb                                  C
Seja onde for, por você eu mudo pra qualquer cidade

     Bb
E|---------------1-----------------------------------|
B|-------3--------------3----------------------------|
G|-----3---3-------3-----------3---------------------|
D|---3-------3-------3-----------3-------------------|  
A|-1-------------------------------------------------|
E|---------------------------------------------------|

     F
E|--------------1------------------------------------|
B|-------1--------------1----------------------------|
G|-----2---2-------2-----------2---------------------|
D|---3-------3-------3-----------3-------------------|  
A|---------------------------------------------------|
E|-1-------------------------------------------------|

     Bb
E|---------------1-----------------------------------|
B|-------3--------------3----------------------------|
G|-----3---3-------3-----------3---------------------|
D|---3-------3-------3-----------3-------------------|  
A|-1-------------------------------------------------|
E|---------------------------------------------------|

     C                                        ↑ ↓ ↑ ↓
E|-----------------------3--------------x--x-x-x-x---|
B|-------5-------6----------------------x--x-x-x-x---|
G|-----5---5--------5---------5---------x--x-x-x-x---|
D|---5-------5--------5---------5-------x--x-x-x-x---|  
A|-3------------------------------------x--x-x-x-x---|
E|--------------------------------------8/-x-x-x-x---|

              Bb
Já tô com vontade do teu beijo
                          F
Escondido pra sua mãe não ver
           Bb
Bateu mó saudade do teu jeito envergonhado
           C
De me conhecer
              Bb
Não foi por acaso
                                      F
Que a gente se escolheu em meio a multidão
                 Bb             C
São sotaques diferentes
                  F
Mas é um só coração

( Bb  F  Bb  C )

F
Princípio de amor

E o padre da cidade
                   Bb
Diz que a gente combinou
                                     Dm
Estamos misturados igual feijão com arroz
                                      C
Tá vendo só eu te falei que iam ver nós dois

          Bb
Amor de interior
                                 F
No interior do peito já bateu saudade
          Bb                                  C
Seja onde for, por você eu mudo pra qualquer cidade

              Bb
Já tô com vontade do teu beijo
                          F
Escondido pra sua mãe não ver
           Bb
Bateu mó saudade do teu jeito envergonhado
           C
De me conhecer
              Bb
Não foi por acaso
                                      F
Que a gente se escolheu em meio a multidão
                 Bb             C
São sotaques diferentes
                  F
Mas é um só coração
Composição de Diogo De Paula / Filipe Escandurras / Gabriel Sirieiro / Rodrigo de Paula / Thiago Maximino
Colaboración y revision:
  • Matheus Trombini
  • Lucas Angeli
  • Afranio Silva
461 reproducciones
    • ½ Tono
    • A
    • Bb
    • B
    • C
    • Db
    • D
    • Eb
    • E
    • F
    • F#
    • G
    • Ab
  • Adicionar à lista

    0 comentarios

    Ver todos os comentários

    ¿Conseguiste tocar?

    4 Tocaram 1 Ainda não

    Grave um vídeo tocando Amor de Interior (part. Camila Queiroz) e nos envie!

    00:00 / 00:00
    outros vídeos desta música
    repetir qualidade Automático
    Outros vídeos desta música
    00:00 / 00:00
    Automático
    OK