Cifra Club

Chuva de Arroz

Luan Santana

Tablatura: Principal
reproducciones 1.778
Tono: D
Intro: Em  G  Bm  A

Em       G
Oh oh oh oh
Bm       A
Oh oh oh oh 

Dedilhado Intro:
Parte 1:  
    Em               G
E|-------3-----2----------------------------|
B|-0----------------0-----------------------|
G|------------------------2-----0-----------|
D|------------------------------------------|
A|------------------------------------------|
E|-0-0-0---0-0---0--3-3-3---3-3---3---------|

Parte 2:   
    Bm               A
E|------------------------------------------|
B|------------------------------------------|
G|-2-----0----------------------------------|
D|-------------4----2-----0-2h4p2p0---------|
A|-2-2-2---2-2---2--0-0-0-----------4-------|
E|------------------------------------------|

Parte 3:
    Em               G
E|-------3-----2----------------------------|
B|-0----------------0-----------------------|
G|------------------------2-----0-----------|
D|------------------------------------------|
A|------------------------------------------|
E|-0-0-0---0-0---0--3-3-3---3-3---3---------|

Parte 4:
    Bm               A
E|-------0-----2----------------------------|
B|-3----------------2-----------------------|
G|------------------------------------------|
D|------------------------------------------|
A|-2-2-2---2-2---2--0-----------------------|
E|------------------------------------------|

Primeira Parte - Primeira Estrofe:
     Em               G
Não mudei de cidade, nem de telefone
 Bm               A
Só escolhi ser feliz
     Em              G
É o mesmo endereço, mesmo apartamento
     Bm                A
Em frente à igreja matriz

Dedilhado Primeira Estrofe:
Parte 1:
    Em               G
E|------------------------------------------|
B|-0-----------3----0-----------3-----------|
G|-------0----------------2-----------------|
D|-2-2-2-2-2-2-2-2--------------------------|
A|------------------------------------------|
E|------------------3-3-3-3-3-3-3-3---------|

Parte 2:
   Bm                A
E|------------------------------------------|
B|------------------------------------------|
G|-2-----0-----2----------------------------|
D|------------------2-----2-----------------|
A|-2-2-2-2-2-2-2-2--0-0-0-0-0-0-0-0---------|
E|------------------------------------------|

Parte 3:   
   Em                G
E|------------------------------------------|
B|-0-----------3----0-----------3/5---------|
G|-------0----------------2-----------------|
D|-2-2-2-2-2-2-2-2--------------------------|
A|------------------------------------------|
E|------------------3-3-3-3-3-3-------------|

Parte 4:  
   Bm               A
E|------------------------------------------|
B|-7-----7-----7----5-----------------------|
G|-7-----7-----7----------------6-----------|
D|-7-----7-----7----------7-----------------|
A|------------------0-0-0-0-0-0-0-0---------|
E|-7-7-7-7-7-7-7-7--------------------------|

Primeira Parte - Segunda Estrofe:         
          Bm
Por isso todo mundo passa
   G                     D     A
E quem nunca passou vai passar
         Bm
Já tô dizendo aos meus amigos
 G                       D
Calma, que eu não vou pirar
      A
Já pirei

Dedilhado Segunda Estrofe:
Parte 1:
   Bm                G
E|-------5----------------------------------|
B|---3--------------3-----3-----------------|
G|-4---4--------------4---------4-----------|
D|------------------------------------------|
A|-2-2-2-2-2-2-2-2--------------------------|
E|------------------3-3-3-3-3-3-3-3---------|

Parte 2:
    D                A
E|-------0-----2----------------------------|
B|-3----------------2-----0-----------------|
G|------------------------------2-----------|
D|-0-0-0-0-0-0-0-0--------------------------|
A|------------------0-0-0-0-0-0-0-0---------|
E|------------------------------------------|

Parte 3:
   Bm                G
E|-------5----------------------------------|
B|---3--------------3-----3-----------------|
G|-4---4--------------4---------4-----------|
D|------------------------------------------|
A|-2-2-2-2-2-2-2-2--------------------------|
E|------------------3-3-3-3-3-3-3-3---------|

Parte 4:
    D                A
E|-------0-----2----------------------------|
B|-3----------------2-----------------------|
G|------------------------------------------|
D|-0-0-0-0-0-0-0-0--------------------------|
A|------------------0-----------------------|
E|------------------------------------------|  

Pré-refrão:
          G          A9
Me apaixonei perdidamente
            G
E o que eu sei
                  A9
É que daqui pra frente

Refrão:
     Em                G
Vai ser nossa cidade, nosso telefone
 Bm              A
Nosso endereço, nosso apartamento
 Em                  G
Sabe aquela igreja, tô aqui na frente
Bm              A
   Imaginando chuvas de arroz na gente

Em  G  Bm       A9
       Oh oh oh oh 
Em       G
Oh oh oh oh
Bm       A9
Oh oh oh oh 

Primeira Parte - Primeira Estrofe:
     Em               G
Não mudei de cidade, nem de telefone
 Bm               A9
Só escolhi ser feliz
     Em              G
É o mesmo endereço, mesmo apartamento
     Bm                A9
Em frente à igreja matriz

Segunda Parte - Segunda Estrofe:         
          Bm
Por isso todo mundo passa
   G                     D     A9
E quem nunca passou vai passar
         Bm
Já tô dizendo aos meus amigos
 G                       D
Calma, que eu não vou pirar
      A9
Já pirei

Pré-refrão:
          G          A9
Me apaixonei perdidamente
            G
E o que eu sei
                  A9
É que daqui pra frente

Refrão:
     Em                G
Vai ser nossa cidade, nosso telefone
 Bm              A9
Nosso endereço, nosso apartamento
 Em                  G
Sabe aquela igreja, tô aqui na frente
Bm              A9
   Imaginando chuvas

     Em                G
Vai ser nossa cidade, nosso telefone
 Bm              A9
Nosso endereço, nosso apartamento
 Em                  G
Sabe aquela igreja, tô aqui na frente
Bm              A9
   Imaginando chuvas de arroz na gente

Em  G  Bm       A9
       Oh oh oh oh 
Em       G
Oh oh oh oh
Bm       A9
Oh oh oh oh 

Final:
E|------------------------------------------|
B|---0---8-----7----------------------------|
G|------------------------------------------|
D|------------------------------------------|
A|-7---7---7-7---7--------------------------|
E|------------------------------------------|
Acordes para:

    0 comentarios

      mostrar más comentarios

      ¿Conseguiste tocar?

      78tocaron5aún no

      ¡Graba un vídeo tocando Chuva de Arroz y envianoslo!

      00:00 / 00:00
      outros vídeos desta música
      repetirqualidadeautomática
      Outro vídeos desta música
        00:00 / 00:00
        automática
        Capítulos
        • Tocando a Música
        • Dicas Iniciais / Equipamentos
        • Acordes da Introdução e Primeira Parte
        • Tocando a Introdução
        • Ensinando a Introdução
        • Introdução - Parte 1 de 4
        • Introdução - Parte 2 de 4
        • Introdução - Parte 3 de 4
        • Introdução - Parte 4 de 4
        • Dicas para a Primeira Parte
        • Tocando a Primeira Estrofe
        • Ensinando a Primeira Estrofe
        • Primeira Estrofe - Parte 1 de 4
        • Primeira Estrofe - Parte 2 de 4
        • Primeira Estrofe - Parte 3 de 4
        • Primeira Estrofe - Parte 4 de 4
        • Tocando a Segunda Estrofe
        • Ensinando a Segunda Estrofe
        • Segunda Estrofe - Parte 1 de 4
        • Segunda Estrofe - Parte 2 de 4
        • Segunda Estrofe - Parte 3 de 4
        • Segunda Estrofe - Parte 4 de 4
        • Acordes para o Pré-Refrão
        • Tocando o Pré-Refrão
        • Ritmo do Pré-Refrão
        • Dicas para o Refrão
        • Tocando o Refrão
        • Ensinando o Ritmo do Refrão
        • Dicas para a repetição da Primeira Parte
        • Tocando a repetição da Primeira Parte
        • Tocando o Último Refrão e o Final
        • Ensinando o Final
        • Encerramento
        • Ficha Técnica / Erros de Gravação
        OK