Cifra Club

Feiticeiro

Luan Santana

Tablatura: Completa (guitarra)
tono: B (con acordes en la forma de A) Capotraste na 2ª casa
Intro: A9

A9            E                     F#m
 O feitiço virou contra o feiticeiro
                   D5(9)             E
 Dá pra ver na sua cara o desespero
A9            E                 F#m
 Você fez de tudo pra me ver sofrer
                     D5(9)        E
E hoje quem sofre e chora é você

Solo: A9  E  F#m  D5(9)
E|----------------------------------------------|
B|-5/7-7-7-5------5/7-7-7-5-------7/9-9-9-7-5-7-|
G|-----------8-6------------8-6-4---------------|
D|----------------------------------------------|
A|----------------------------------------------|
E|----------------------------------------------|

E|----------------------------------------------9-11-12/14-|
B|-5/7-7-7-5-----5/7-7-7-5---------------------------------|
G|-----------8-6-----------8-6-8-6-8-6-8-6-8-6-------------|
D|---------------------------------------------------------|
A|---------------------------------------------------------|
E|---------------------------------------------------------|

A9         E     F#m
  Pra você ver,
            D5(9)
  você tá pagando pelo
          A9     E   F#m
  que me fez sofrer,
              D5(9)
  Mas o mundo gira
              A9
 agora é sua vez
         E  F#m                      D5(9)               A9
 de acertar     as contas com a sua própria consciência
         E  F#m              D5(9)                 Bm
 e entender    que cada ato gera uma consequência.
                F#m            D5(9)       Bm
 Será que dessa vez você aprendeu a lição
                    F#m             E
 Quem planta indiferença colhe solidão.

Refrão:
A9             E                      F#m
  O feitiço virou contra o feiticeiro
                   D5(9)             E
 Dá pra ver na sua cara o desespero
A9             E                 F#m
  Você fez de tudo pra me ver sofrer
                     D5(9)        E
E hoje quem sofre e chora é você
Composição de Thiago Ramos
Colaboración y revision:
  • Otavio Rezende
21 reproducciones
    • ½ Tono
    • A
    • Bb
    • B
    • C
    • Db
    • D
    • Eb
    • E
    • F
    • F#
    • G
    • Ab
  • Adicionar à lista

    0 comentarios

    Ver todos os comentários

    ¿Conseguiste tocar?

    1 Tocaram 0 Ainda não

    Grave um vídeo tocando Feiticeiro e nos envie!

    00:00 / 00:00
    outros vídeos desta música
    repetir qualidade Automático
    Outros vídeos desta música
    00:00 / 00:00
    Automático
    OK