Cifra Club

Feiticeiro

Luan Santana

Tablatura: Versão 3 (guitarra)
Já pensou em usar uma coleção de roupas do Cifra Club? Responda as perguntas abaixo e nos ajude nessa missão! →
tono: D (con acordes en la forma de A) Capotraste na 5ª casa
Refrão:
A9            E                     F#m                  D  E
O feitiço virou contra o feiticeiro. Dá pra ver na sua cara o desespero
A9            E                    F#m                     D  E
Você fez de tudo pra me ver sofrer. E hoje quem sofre e chora é você

 Solo: A9  E  F#m  D  A9  E  F#m  D  E
E|--------------------------------1/2-2-2-1------|
B|--4/5-5-5-3-2-0--4/5-5-5-3-2----2/3-3-3-2-3-5--|
G|-----------------------------2------------4-6--|
D|-----------------------------------------------|
A|-----------------------------------------------|
E|-----------------------------------------------|

E|------------------------------------------0h1h2-1-2-4--|
B|--4/5-5-5-3-2-0--4/5-5-5-3-2--------0h2h3-------2-3-5--|
G|------------------------------0h2h4--------------------|
D|-------------------------------------------------------|
A|-------------------------------------------------------|
E|-------------------------------------------------------|

A9         E  F#m           D
Pra você ver,  você ta pagando pelo que me fez
A9          E  F#m              D
Me fez sofrer,  Mas o mundo gira e agora é sua vez

A9        E Bm                  D
De acertar   As contas com sua própria consciência
A9        E Bm              D
E entender   Que cada ato gera uma conseqüência

Bm                            F#m
Será que dessa vez você aprendeu a lição
D                  Bm             E
Quem planta indiferença colhe solidão

Refrão:
A9            E                     F#m                  D   E
O feitiço virou contra o feiticeiro. Dá pra ver na sua cara o desespero
A9            E                    F#m                     D   E
 Você fez de tudo pra me ver sofrer. E hoje quem sofre e chora é você

A9            E                     F#m                  D   E
O feitiço virou contra o feiticeiro. Dá pra ver na sua cara o desespero
A9            E                    F#m                     D   E
Você fez de tudo pra me ver sofrer. E hoje quem sofre e chora é você

 Solo: A9  E  F#m  D  A9  E  F#m  D  E
E|--------------------------------1/2-2-2-1------|
B|--4/5-5-5-3-2-0--4/5-5-5-3-2----2/3-3-3-2-3-5--|
G|-----------------------------2------------4-6--|
D|-----------------------------------------------|
A|-----------------------------------------------|
E|-----------------------------------------------|

E|------------------------------------------0h1h2-1-2-4--|
B|--4/5-5-5-3-2-0--4/5-5-5-3-2--------0h2h3-------2-3-5--|
G|------------------------------0h2h4--------------------|
D|-------------------------------------------------------|
A|-------------------------------------------------------|
E|-------------------------------------------------------|

Bm                            F#m
Será que dessa vez você aprendeu a lição
D                  Bm              E
 Quem planta indiferença colhe solidão

Refrão:
A9            E                     F#m                  D   E
O feitiço virou contra o feiticeiro. Dá pra ver na sua cara o desespero
A9            E                    F#m                     D   E
Você fez de tudo pra me ver sofrer. E hoje quem sofre e chora é você

A9            E                     F#m                  D   E
O feitiço virou contra o feiticeiro. Dá pra ver na sua cara o desespero
A9            E                    F#m                     D   E       A9
Você fez de tudo pra me ver sofrer. E hoje quem sofre e chora é você
E|-------------------|
B|-------------------|
G|-------------------|
D|--------------0----|
A|--------0-2-4---0--|
E|--0-2-4------------|

            E                     F#m                  D   E
 O feitiço virou contra o feiticeiro. Dá pra ver na sua cara o desespero
A9            E                    F#m                     D   A9
 Você fez de tudo pra me ver sofrer. E hoje quem sofre e chora é você
Composição de Thiago Ramos
Colaboración y revision:
  • Maria Carollina
  • Ricardo Nunes
6 reproducciones
    • ½ Tono
    • A
    • Bb
    • B
    • C
    • Db
    • D
    • Eb
    • E
    • F
    • F#
    • G
    • Ab
  • Adicionar à lista

    0 comentarios

    Ver todos os comentários

    ¿Conseguiste tocar?

    1 Tocaram 0 Ainda não

    Grave um vídeo tocando Feiticeiro e nos envie!

    00:00 / 00:00
    outros vídeos desta música
    repetir qualidade Automático
    Outros vídeos desta música
    00:00 / 00:00
    Automático
    OK