Cifra Club

Aprenda

Hasta La Vista (part. Simone & Simaria e Pabllo Vittar)

Luan Santana

Tablatura: Principal (guitarra)
tono: A
[Intro] D  E

      D               E
E|----------------------------------------------------|
B|----------------------------------------------------|
G|------------6---------------------------------------|
D|-------7---------------7----------------------------|
A|--5--5---5--------7--7---7--9-----------------------|
E|----------------------------------------------------|

      D               E
E|----------------------------------------------------|
B|----------------------------------------------------|
G|------------6---------------------------------------|
D|-------7---------------7----------------------------|
A|--5--5---5--------7--7---7--9-----------------------|
E|----------------------------------------------------|

D                    E
 Ai, que perfume gostoso
                          D
 Deixa eu sentir mais de perto
               E
A sua boca na minha tem destino certo
D                   E
 Bora fazer uma loucura
                        D
Cair sem destino na estrada
                   E
Só vai dar eu e você em plena madrugada

 D                           E
Fecha os olhos e se solta, que o som te faz
    D                        E
Esquecer tudo a sua volta e não olhar pra trás
  D                     E                   C#m  D
Quando você tá comigo, todo dia vira festa

D              E                  F#m
Ah, eu vou dançar até a noite acabar
                           A
(Hasta la vista, hasta la vista, hasta la vista, baby)
D              E                  F#m
Ah, eu vou dançar até a noite acabar
                           A
(Hasta la vista, hasta la vista, hasta la vista, baby)

( D  E  F#m  A )
( D  E  F#m  A )

 D                           E
Fecha os olhos e se solta, que o som te faz
    D                        E
Esquecer tudo a sua volta e não olhar pra trás
  D                     E                   C#m  D
Quando você tá comigo, todo dia vira festa

D              E                  F#m
Ah, eu vou dançar até a noite acabar
                           A
(Hasta la vista, hasta la vista, hasta la vista, baby)
D              E                  F#m
Ah, eu vou dançar até a noite acabar
                           A
(Hasta la vista, hasta la vista, hasta la vista, baby)

( D  E  F#m  A )
( D  E  F#m  A )

Hasta la vista, hasta la vista, hasta la vista, baby
Hasta la vista, hasta la vista, hasta la vista, baby

[Final] D  E  F#m  A
Colaboración y revision:
  • Getúlio Vasconcelos
3 reproducciones
    • ½ Tono
    • A
    • Bb
    • B
    • C
    • Db
    • D
    • Eb
    • E
    • F
    • F#
    • G
    • Ab
  • Adicionar à lista

    0 comentarios

    Ver todos os comentários

    ¿Conseguiste tocar?

    0 Tocaram 0 Ainda não

    Grave um vídeo tocando Hasta La Vista (part. Simone & Simaria e Pabllo Vittar) e nos envie!

    00:00 / 00:00
    outros vídeos desta música
    repetir qualidade Automático
    Outros vídeos desta música
    00:00 / 00:00
    Automático
    OK