Cifra Club

Mesmo Sem Estar (part. Sandy)

Luan Santana

Cifrado: Principal (guitarra y guitarra eléctrica)
tono: E
[Intro]

E|---------------------------|
B|---------------------------|
G|-9/11-9-13--9/11-9---------|
D|-------------------9-------|
A|---------------------------|
E|---------------------------|

E9
Eu tô na preguiça que sempre te dá
Quando olha no relógio já passou das 6
            C#m
Eu tô na playlist do teu celular
Escondido na história da música 3
              A9
Tô no teu reflexo no espelho
                    F#m   B9
No teu travesseiro, sonho e pesadelo
                 E9
E quando acordar, eu tô aí
            Am
Mesmo sem estar
E9
Tô naquela fome louca de manhã
Na vontade de comer besteira no café
             C#m
Tô naquela blusa que eu sei que é azul
Só pra me irritar insiste em dizer que não é
         A9
Tô na solidão do elevador
           E/G#      F#m
Do teu cobertor, no filme de amor
B9               E9
Seja onde for, eu tô aí
           B7    
Mesmo sem estar
     A9
Uuuuuu
                         E9
Saiba que eu sempre to aí
     A9
Uuuuuu
                        C#m
Saiba que eu sempre tô aí
    A9
Uuuuu
          B7
Mesmo sem estar
            E9
Que tal apostar
                        B/D#   C#m
A gente não se fala mais por um mês
Você vai ver
                     A9
Que o tempo não muda nada, nada
F#m    B7
Nada, nada
      E9              B7
Eu tô aí, mesmo sem estar

E|---------------------------|
B|---------------------------|
G|-9/11-11-11-11-------------|
D|---------------11-9/13-----|
A|---------------------------|
E|---------------------------|

E|---------------------------|
B|---------------------------|
G|-8h9-8---------------------|
D|---------------------------|
A|---------------------------|
E|---------------------------|

B9
Eu to na preguiça que sempre te dá
Quando olha no relógio já passou das 6
            G#m
Eu tô na playlist do teu celular
Escondido na história da música 3
              E9
To no teu reflexo no espelho
                    C#m
No teu travesseiro, sonho e pesadelo
     F#           B
E quando acordar, eu tô aí
            Em
Mesmo sem estar
B9
Tô naquela fome louca de manhã
Na vontade de comer besteira no café
             G#m
Tô naquela blusa que eu sei que é azul
Só pra me irritar insiste em dizer que não é
         E9
Tô na solidão do elevador
                 C#m
Do teu cobertor, no filme de amor
F#             B
Seja onde for, eu tô aí
           F#7
Mesmo sem estar
     E9
Uuuuuu
                         B9
Saiba que eu sempre to aí
     E9
Uuuuuu
                        G#m
Saiba que eu sempre tô aí
    E9
Uuuuu
F#7
Mesmo sem estar
            B9
Que tal apostar
                       F#/A#  G#m
A gente não se fala mais por um mês
Você vai ver
                     E9
Que o tempo não muda nada, nada
C#m    F#
Nada, nada
      B9             F#7
Eu tô aí, mesmo sem estar

E|---------------------------|
B|---------------------------|
G|-9/11-11-11-11------9/11---|
D|---------------11-9--------|
A|---------------------------|
E|---------------------------|

E|---------------------------|
B|---------------------------|
G|-8h9-8---------------------|
D|---------------------------|
A|---------------------------|
E|---------------------------|
00:00 / 00:00
Otros videos de esta canción
Repetir
Otros videos de esta canción
Composición de Humberto Tavares / Jefferson Junior
Colaboración y revisión:
1.580 vistas
    • ½ Tono
    • A
    • Bb
    • B
    • C
    • Db
    • D
    • Eb
    • E
    • F
    • F#
    • G
    • Ab
  • Agregar a la lista

    0 comentarios

    Ver todos los comentarios

    ¿Lograste tocar?

    29 Tocaron 8 Aún no

    ¡Graba un video tocando Mesmo Sem Estar (part. Sandy) y envíanoslo!

    00:00 / 00:00
    OK