Cifra Club

Meteoro

Luan Santana

Cifrado: Principal (guitarra y guitarra eléctrica)
tono: A
[Refrão] 

A                         E  
  Te dei o sol, te dei o mar  
                    F#m 
Pra ganhar seu coração  
                   D
Você é raio de saudade
               A  
Meteoro da paixão  
                  E    
Explosão de sentimentos  
                        F#m
Que eu não puder acreditar
            D
Ah! como é bom poder te amar

[Solo] A  E  D  F#m  E 

[Tab - Solo]

Parte 1 de 6
E|-----------------------|
B|-----------------------|
G|-------2-2-2-2-2-2-2-2-|
D|-------2-2-2-2-2-2-2-2-|
A|-0-2/4-----------------|
E|-----------------------|

Parte 2 de 6
E|-----------------------|
B|-3/5-5-5-5-5-5-5-------|
G|-2/4-4-4-4-4-4-4-------|
D|-----------------------|
A|-----------------------|
E|-----------------------|

Parte 3 de 6
E|---------2-0-2---------|
B|--3-------------2------|
G|-2---1/2---1-2--2------|
D|-----------------------|
A|-----------------------|
E|-----------------------|

Parte 4 de 6
E|-----------------------|
B|-----------------------|
G|-2-2-2-2-2-2-----------|
D|-2-2-2-2-2-2-----------|
A|-----------------------|
E|-----------------------|

Parte 5 de 6
E|-----------------------|
B|-3/5-5-5-5-5-5-5-------|
G|-2/4-4-4-4-4-4-4-------|
D|-----------------------|
A|-----------------------|
E|-----------------------|

Parte 6 de 6
E|--------9-7-7/9-9\5----|
B|-3---------------------|
G|2---7h9-9-7-7/9-9\6----|
D|-----------------------|
A|-----------------------|
E|-----------------------|

[Primeira Parte]

A                        E
  Depois que eu te conheci
            F#m
Fui mais feliz
             D
Você é exatamente
                  A
O que eu sempre quis
                   E
Ela se encaixa perfeitamente em mim
F#m                   D         A
    O nosso quebra-cabeça teve fim

[Tab - Pré-Refrão]

   A4
E|-----10p9----12-----10p9---12-----10p9---12-|
B|---9------9-------9------9------9------9----|
G|-9--------------9-------------9-------------|
D|--------------------------------------------|
A|--------------------------------------------|
E|--------------------------------------------|

   F#m          D9
E|-------3------------5--------5-------5------|
B|-----3---3----------5--------5-------5------|
G|---3-------3------7------7---------7-----7--|
D|-4--------------7------7---7-----7-----7---7|
A|--------------5----------------5------------|
E|--------------------------------------------|

[Pré-Refrão]

A4                     
   Se for sonho não me acorde
       F#m      D9
Eu preciso flutuar

Pois só quem sonha
    E
Consegue alcançar

[Refrão]

A                         E
  Te dei o sol, te dei o mar
                    F#m
Pra ganhar seu coração
                   D
Você é raio de saudade
               A
Meteoro da paixão
                  E
Explosão de sentimentos
                        F#m
Que eu não puder acreditar
            D
Ah! Como é bom poder te amar

( A  E  D  F#m  E )
( A  E  D  F#m  E )

[Primeira Parte]

A                        E
  Depois que eu te conheci
            F#m
Fui mais feliz
             D
Você é exatamente
                  A
O que eu sempre quis
                   E
Ela se encaixa perfeitamente em mim
F#m               D         A
O nosso quebra-cabeça teve fim

[Pré-Refrão]

        E             F#m
Se for sonho não me acorde
                   D
Eu preciso flutuar

Pois só quem sonha
    E
Consegue alcançar

[Refrão]

A                         E
  Te dei o sol, te dei o mar
                    F#m
Pra ganhar seu coração
                   D
Você é raio de saudade
               A
Meteoro da paixão
                  E
Explosão de sentimentos
                        F#m
Que eu não puder acreditar
            D
Ah! Como é bom poder te amar


[Ponte]

A     G#m    F#m          E
  Tão     veloz quanto a luz
         D           A
Pelo Universo eu viajei
         F#m        E
Vem me guia, me conduz
         D            E
Que pra sempre te amarei

[Refrão]

A                         E
  Te dei o sol, te dei o mar
                    F#m
Pra ganhar seu coração
                   D
Você é raio de saudade
               A
Meteoro da paixão
                  E
Explosão de sentimentos
                        F#m
Que eu não puder acreditar
            D
Ah! Como é bom poder te amar

A                         E
  Te dei o sol, te dei o mar
                    F#m
Pra ganhar seu coração
                   D
Você é raio de saudade
               A
Meteoro da paixão
                  E
Explosão de sentimentos
                        F#m
Que eu não puder acreditar
            D
Ah! Como é bom poder te amar

F#m         D
Ah! Como é bom poder te amar

[Final] A  E  F#m  D  A

[Tab - Solo Final]

E|--------------------------------------------|
B|----------------------3/5-5-5-5-5-5-5-------|
G|-------2-2-2-2-2-2-2--2/4-4-4-4-4-4-4-------|
D|-------2-2-2-2-2-2-2------------------------|
A|-0-2/4--------------------------------------|
E|--------------------------------------------|

E|-----------5--------------------------------|
B|-----7-5-7-----7-5--------------------------|
G|-5/7---------------7-7\6-6\4-4-----2--------|
D|-------------------------------2h4----------|
A|--------------------------------------------|
E|--------------------------------------------|
00:00 / 00:00
Otros videos de esta canción
Repetir
Otros videos de esta canción
Composición de Sorocaba
Colaboración y revisión:
5.086 vistas
  • Simplificar cifrado
    • ½ Tono
    • A
    • Bb
    • B
    • C
    • Db
    • D
    • Eb
    • E
    • F
    • F#
    • G
    • Ab
  • Agregar a la lista

    0 comentarios

    Ver todos los comentarios
    00:00 / 00:00
    Capítulos
    • Início
    • Acordes da Introdução (refrão)
    • Tocando a Introdução (refrão)
    • Ensinando o ritmo da Introdução
    • Tocando a base do solo
    • Ensinando o ritmo da base do solo
    • Acordes da primeira parte
    • Tocando a primeira parte
    • Ensinando o ritmo da primeira parte
    • Acordes da segunda parte
    • Tocando a segunda parte
    • Ensinando o dedilhado da segunda parte
    • Tocando o refrão
    • Ensinando o ritmo do refrão
    • Acordes da terceira parte
    • Tocando a terceira parte
    • Ensinando o ritmo da terceira parte
    • Tocando o solo da introdução
    • Ensinando o solo da introdução (parte 1)
    • Ensinando o solo da introdução (parte 2)
    • Ensinando o solo da introdução (parte 3)
    • Ensinando o solo da introdução (parte 4)
    • Ensinando o solo da introdução (parte 5)
    • Ensinando o solo da introdução (parte 6)
    • Encerramento
    OK