Cifra Club

Quando a Bad Bater

Luan Santana

Cifrado: Principal (guitarra y guitarra eléctrica)
tono: Bb (con acordes en la forma de A) Capotraste en 1ª casa
[Intro]

   Am7
E|------------------------------------------|
B|-------1------------1---------------------|
G|-----0---0--------0---0-------------------|
D|---2-------2----2-------2-----------------|
A|-0------------0---------------------------|
E|------------------------------------------|

[Primeira Parte]

Am7   F9
Amor,    eu só quero o seu bem
C
  Se for embora agora
 G
Vai ficar sem ninguém

Am7   F9
Amor,    eu quero um filho seu
C
  E eu não suporto a ideia
 G
De que nada valeu

[Primeira Parte]

[Parte 1]

   Am7           F9
E|---------------------3--------------------|
B|-------1-----------1---1------------------|
G|-----0---0-------0-------0----------------|
D|---2-------2---3--------------------------|
A|-0----------------------------------------|
E|------------------------------------------|


[Parte 2]

   C          G
E|------------------------------------------|
B|---------1--------3-----------------------|
G|-------0--------0---0---------------------|
D|---0h2--------0-------0-------------------|
A|-3----------------------------------------|
E|------------3-----------------------------|

[Parte 1]

   Am7           F9
E|---------------------3--------------------|
B|-------1-----------1---1------------------|
G|-----0---0-------0-------0----------------|
D|---2-------2---3--------------------------|
A|-0----------------------------------------|
E|------------------------------------------|

[Parte 1]

   C          G
E|------------------------------------------|
B|---------1--3-----------------------------|
G|-------0----0-----------------------------|
D|---0h2------0-----------------------------|
A|-3----------------------------------------|
E|------------3-----------------------------|

[Pré-Refrão]

 F                    G            Am7
Para pra ver o quanto a gente cresceu
                  Em7
E tudo que eu te dei de bom
 F                  G              Am7
Lembra da gente no seu quarto no breu
               G
Debaixo do seu edredom

[Refrão]
                       Dm
Não vai saber o que fazer
          Am
Quando a bad bater
       C                   G
E o silêncio trazer minha voz

                       Dm
Não vai saber o que beber
         Am                  C
Se esse vinho não mata essa sede
               G
Sede que é de nós
                 
                       Dm
Não vai saber o que fazer
          Am
Quando a bad bater
       C                   G
E o silêncio trazer minha voz

                       Dm
Não vai saber o que beber
         Am                  C
Se esse vinho não mata essa sede
               G
Sede que é de nós


[Ponte 2x]

Dm  Am  C  G

[Primeira Parte]

Am7   F
Amor,   eu só quero o seu bem
C
  Se for embora agora
 G
Vai ficar sem ninguém

Am7   F
Amor,   eu quero um filho seu
C
  E eu não suporto a ideia
 G
De que nada valeu

[Pré-Refrão]

 F                    G            Am7
Para pra ver o quanto a gente cresceu
                  Em7
E tudo que eu te dei de bom
 F                  G              Am7
Lembra da gente no seu quarto no breu
               G
Debaixo do seu edredom

[Refrão]

                       Dm
Não vai saber o que fazer
          Am
Quando a bad bater
       C                   G
E o silêncio trazer minha voz

                       Dm
Não vai saber o que beber
         Am                  C
Se esse vinho não mata essa sede
               G
Sede que é de nós
                 
                       Dm
Não vai saber o que fazer
          Am
Quando a bad bater
       C                   G
E o silêncio trazer minha voz

                       Dm
Não vai saber o que beber
         Am                  C
Se esse vinho não mata essa sede
               G
Sede que é de nós

 Dm                     Am
Vai ver quando a bad bater
                   C
Quando essa bad bater
          G
E trazer minha voz

 Dm                     Am
Vai ver quando a bad bater
                   C
Quando essa bad bater
                       G        
Vai ver que a sua sede é de nós

(Dm  Am  C  G) 2x
00:00 / 00:00
Otros videos de esta canción
Repetir
Otros videos de esta canción
Composición de Luan Santana
Colaboración y revisión:
  • Leandro Sandim
2.110 vistas
  • Simplificar cifrado
    • ½ Tono
    • A
    • Bb
    • B
    • C
    • Db
    • D
    • Eb
    • E
    • F
    • F#
    • G
    • Ab
  • Agregar a la lista

    0 comentarios

    Ver todos los comentarios

    ¿Lograste tocar?

    6 Tocaron 0 Aún no

    ¡Graba un video tocando Quando a Bad Bater y envíanoslo!

    00:00 / 00:00
    Capítulos
    • Tocando a Música
    • Apresentação / Equipamentos
    • Acordes da Música
    • Tocando Introdução e Primeira Parte
    • Dedilhado Introdução e Primeira Parte
    • Ensinando Dedilhado Introdução
    • Ensinando Dedilhado Primeira Parte - Parte 1 de 3
    • Ensinando Dedilhado Primeira Parte - Parte 2 de 3
    • Ensinando Dedilhado Primeira Parte - Parte 3 de 3
    • Tocando Pré-Refrão e Refrão
    • Ensinando Ritmo da Música
    • Encerramento
    OK