Cifra Club

O Destino

Lucas Conslie

Cifrado: Principal (guitarra y guitarra eléctrica)
tono: C
Intro:


    F7M
E|------------------------------------------|
B|-1---1---1---1---1---1---1---1------------|
G|------------------------------------------|
D|---2---2---2---2---2---2---2---2----------|
A|------------------------------------------|
E|------------------------------------------|

Dedilhado Refrão e Primeira Parte:

    F7M              Dm7
E|------------------------------------------|
B|-1---1---1---1----------------------------|
G|------------------5---5---5---5-----------|
D|---2---2---2---2----3---3---3---3---------|
A|------------------5-----------------------|
E|-1----------------------------------------|

    Am               G
E|------------------------------------------|
B|------------------------------------------|
G|-5---5---5---5----4---4---4---4-----------|
D|---2---2---2---2----0---0---0---0---------|
A|-0----------------------------------------|
E|------------------3-----------------------|

Refrão:

                            F7M
O destino deve estar nos olhando
                         Dm7
Com aquela cara de quem diz
       Am               G
Eu tentei juntar vocês dois

                            F7M
O destino deve estar nos olhando
         Dm7
Decepcionado
       Am        G
Que pena, que pena

Primeira Parte:
                      F7M
Que a gente estragou tudo
                 Dm7
Porque pensamos tanto em ser perfeitos
Am                     G
   E os perfeitos não sabem amar
                  F7M
A gente estragou tudo
                Dm7
Por apontarmos tanto os nossos erros
   Am                  G
Os erros vão sempre estar aqui

Refrão:
                            F9
O destino deve estar nos olhando
                         Dm
Com aquela cara de quem diz
       Am7              G
Eu tentei juntar vocês dois
                            F9
O destino deve estar nos olhando
         Dm
Decepcionado
       Am7       G
Que pena, que pena

                            F9
O destino deve estar nos olhando
                         Dm
Com aquela cara de quem diz
       Am7              G
Eu tentei juntar vocês dois
                            F9
O destino deve estar nos olhando
         Dm
Decepcionado
       Am7       G
Que pena, que pena
F9   Dm  Am7  G
Ôôô...   Aahh...

Primeira Parte:
                      F9
Que a gente estragou tudo

                 Dm
Porque pensamos tanto em ser perfeitos
Am7                    G
   E os perfeitos não sabem amar
                  F9
A gente estragou tudo
                Dm
Por apontarmos tanto os nossos erros
     Am7                 G
E os erros vão sempre estar aqui

Segunda Parte:

F      G    Am7  C9
  Não foi amor
Dm       C/E   F  G
   E o que faltou
Am7
   Foi o que então 
G
  Não me pergunte não


F      G    Am7  C9
  Não foi amor
Dm       C/E   F  G
   E o que faltou
Am7
   Foi o que então 
G
  Não me pergunte não

Refrão:

                            F7M
O destino deve estar nos olhando
                         Dm7
Com aquela cara de quem diz
       Am               G
Eu tentei juntar vocês dois

                            F7M
O destino deve estar nos olhando
         Dm7
Decepcionado
       Am        G
Que pena, que pena

Intro:

    F7M
E|------------------------------------------|
B|-1---1---1---1---1---1---1---1------------|
G|------------------------------------------|
D|---2---2---2---2---2---2---2---2----------|
A|------------------------------------------|
E|------------------------------------------|

Dedilhado Refrão e Primeira Parte:

    F7M              Dm7
E|------------------------------------------|
B|-1---1---1---1----------------------------|
G|------------------5---5---5---5-----------|
D|---2---2---2---2----3---3---3---3---------|
A|------------------5-----------------------|
E|-1----------------------------------------|

    Am               G
E|------------------------------------------|
B|------------------------------------------|
G|-5---5---5---5----4---4---4---4-----------|
D|---2---2---2---2----0---0---0---0---------|
A|-0----------------------------------------|
E|------------------3-----------------------|
Compositor no encontrado.
Colaboración y revisión:
  • FORRÓ ᴼᴿᴵᴳᴵᴻᴬᴸ
16 vistas
    • ½ Tono
    • A
    • Bb
    • B
    • C
    • Db
    • D
    • Eb
    • E
    • F
    • F#
    • G
    • Ab
  • Agregar a la lista

    0 comentarios

    Ver todos los comentarios

    ¿Lograste tocar?

    0 Tocaron 0 Aún no

    ¡Graba un video tocando O Destino y envíanoslo!

    00:00 / 00:00
    Otros videos de esta canción
    Repetir Calidad Automático
    Otros videos de esta canción
    00:00 / 00:00
    Automático
    OK