Cifra Club

Tu Amor

Lucas Conslie

Cifrado: Principal (guitarra y guitarra eléctrica)
tono: B
Intro (Rif)

E|---------------0----------------| Primera cuerda
B|---------------0----------------|
G|---------------0----------------|
D|-----------------9--------------|
A|-------------------11-----------|
E|---------------0----------------| Sexta cuerda

E|-------0------------------------| Primera cuerda
B|-------0------------------------|
G|-------0------------------------|
D|------------------13------------|
A|---------------11---------------|
E|-------0------------------------| Sexta cuerda

E|-------0------------------------| Primera cuerda
B|-------0------------------------|
G|-------0------------------------|
D|-------------8------------------|
A|---------------9----------------|
E|-------0------------------------| Sexta cuerda

E|------0-------------------------| Primera cuerda
B|------0-------------------------|
G|------0-------------------------|
D|---------------------11---------|
A|------------------9-------------|
E|------0-------------------------| Sexta cuerda


En los cielo y en la tierra, vemos tu poder
En la creación y el rededor, vemos tu amor

E      B   F# 
En tu luz siempre andaremos jesús
E   B      F# 
De tu amor no desistiremos señor
E   B      F# 
Tu verdad en mis labio siempre estará
E    F# 
Dios a ti me rindo



B 
Tu amor está en este lugar
D#m 
Tu espíritu llena mi ser
C#m 
Tu gracia nos alcanzara
G#m                 F# 
Al ver tu gloria y tu poder
B 
Cautivados por tu voz
D#m 
Conducidos por tu corazón
C#m 
Nos postramos ante ti
G#m           F#        B 
Y te adoro, y te adoro.
Compositor no encontrado.
3 vistas
    • ½ Tono
    • A
    • Bb
    • B
    • C
    • Db
    • D
    • Eb
    • E
    • F
    • F#
    • G
    • Ab
  • Agregar a la lista

    0 comentarios

    Ver todos los comentarios

    ¿Lograste tocar?

    0 Tocaron 0 Aún no

    ¡Graba un video tocando Tu Amor y envíanoslo!

    00:00 / 00:00
    Otros videos de esta canción
    Repetir Calidad Automático
    Otros videos de esta canción
    00:00 / 00:00
    Automático
    OK