Cifra Club

Aprenda

Presente de Deus

Lucas e Luan

Tablatura: Principal (guitarra)
tono: D
Intro: D A4 Em7 Bm A D
E|-------------------------------------|
B|-3-3-5-7-7--3-3-5-5--7-8-7-----------|
G|---------------------------9-9-7-6---|
D|------------------------------------9|
A|------------------------------------9|
E|-------------------------------------|

D                                                    A4
Há tempo que eu espero alguem assim especial como você...
       Em7                                                              Bm Bm Bm Bm A
Pra preencher esse vazio que tanto insiste em deixar triste o meu viver
D    Em7         G                          D
Seu amor, será como tatuagem sobre mim a cicatriz,
                                                A4           D
Apagando as más lembranças, me ensinando a ser feliz, ser feliz.

              D                   A4               Em7                   Bm
Hoje meu horizonte, é cheio de cores, você é meu jardim onde vou colher flores
            G     D                    A4                Em7                  Bm
Hoje sigo tranquilo, na luz dos olhos teus, você é o presente que ganhei de Deus.

(Solo)

D                                                    A4
Há tempo que eu espero alguem assim especial como você...
       Em7                                                              Bm Bm Bm Bm A
Pra preencher esse vazio que tanto insiste em deixar triste o meu viver
D    Em7         G                          D
Seu amor, será como tatuagem sobre mim a cicatriz,
                                                A4           D        G   D A A A9
Apagando as más lembranças, me ensinando a ser feliz, ser feliz.

A G            D                   A4               Em7                   Bm
Hoje meu horizonte, é cheio de cores, você é meu jardim onde vou colher flores
            G     D                    A4                Em7                  Bm
Hoje sigo tranquilo, na luz dos olhos teus, você é o presente que ganhei de Deus.
E|---------------------------------|
B|-10-12-10-12-10----7-8-7---------|
G|------------------9-----9-9-7-6--|
D|--------------------------------9|
A|--------------------------------9|
E|---------------------------------|

             D                   A9               Em7                   Bm
Hoje meu horizonte, é cheio de cores, você é meu jardim onde vou colher flores
            G     D                    A4                Em7                  Bm
Hoje sigo tranquilo, na luz dos olhos teus, você é o presente que ganhei de Deus.
E|-------------------------------------|
B|-3-3-5-7-7--3-3-5-5--7-8-7-----------|
G|---------------------------9-9-7-6---|
D|------------------------------------9|
A|------------------------------------9|
E|-------------------------------------|

D                                                    A D G A D9
Há tempo que eu espero alguem assim especial como você...
Colaboración y revision:
  • Felipe Souza
36 reproducciones
    • ½ Tono
    • A
    • Bb
    • B
    • C
    • Db
    • D
    • Eb
    • E
    • F
    • F#
    • G
    • Ab
  • Adicionar à lista

    0 comentarios

    Ver todos os comentários
    00:00 / 00:00
    outros vídeos desta música
    repetir qualidade Automático
    Outros vídeos desta música
    00:00 / 00:00
    Automático
    OK