Cifra Club

Aprenda

Tempo

Lucas e Luan

Tablatura: Principal (guitarra)
tono: B
Intro: E  B  C#m
   E          B    C#m
E|----------------------|
B|-------3/5-5/7-5p4----|
G|-1h2----------------6-|
D|----------------------|
A|----------------------|
E|----------------------|

E
Eu nem lembrava mais seus lindos traços
         B
e desses beijos tão longes dos meus
       E
Eu nem lembrava mais dos seus abraços,
            B
foi esse o preço do nosso adeus
G#m                   C#m        E                         F#
Mas de repente, tão perto de mim àquele antigo jeito de me olhar
G#m                   C#m      E                      B         E F B
Eu que achava que existia fim, vi nos teus olhos tudo recomeçar

Refrão:

E                                             B
Tempo que cura tanta coisa e não quer me curar
                                     C#m
Os anos vão passando sem você voltar
                                                    E
Tempo que cura o sentimento e a dor não chega ao fim
                       B                  E
Por fora nego mas por dentro judia de mim

                                              B
Tempo que cura tanta coisa e não quer me curar
                                     C#m
Os anos vão passando sem você voltar
                                                    E
Tempo que cura o sentimento e a dor não chega ao fim
                       B                  E
Por fora nego mas por dentro judia de mim
   E          B    C#m
E|----------------------|
B|-------3/5-5/7-5p4----|
G|-1h2----------------6-|
D|----------------------|
A|----------------------|
E|----------------------|  (2x)

      E
Tento mostrar o meu desinteresse,
            B
mas já não posso mais me enganar   G|-6p4-|
           E
Nem mesmo deus ouviu as minhas preces,  D|-6b7---|
                                        A|-----7-|
          B
daí me entrego, não posso evitar
G#m                 C#m
Mas uma noite dessa longa história,
E                      F#
eu sempre achando que chegou ao fim
 G#m                       C#m
Mas quando eu penso que acabou pra sempre,  B|-4p2--|
                                            G|----4-|

 E                   B             F#     E     B
alguma coisa traz você pra mim  B|-2-2-2-5/9-9\-|

Refrão:

E                                             B
Tempo que cura tanta coisa e não quer me curar
                                     C#m
Os anos vão passando sem você voltar
                                                    E
Tempo que cura o sentimento e a dor não chega ao fim
                       B                  E
Por fora nego mas por dentro judia de mim

                                              B
Tempo que cura tanta coisa e não quer me curar
                                     C#m
Os anos vão passando sem você voltar
                                                    E
Tempo que cura o sentimento e a dor não chega ao fim
                       B                  E
Por fora nego mas por dentro judia de mim
   E          B    C#m
E|----------------------|
B|-------3/5-5/7-5p4----|
G|-1h2----------------6-|
D|----------------------|
A|----------------------|
E|----------------------|

Judia de mim

   E          B    C#m
E|----------------------|
B|-------3/5-5/7-5p4----|
G|-1h2----------------6-|
D|----------------------|
A|----------------------|
E|----------------------|

Por fora nego mas por dentro judia de mim

      E        B        C#m       E
E|--------|--------|--------|-------|
B|-----0--|-----4--|-----1--|-----0-|
G|----1-1-|----4-4-|----2-2-|----1--|
D|---2----|---4----|---2----|---2---|
A|--2-----|--2-----|--4-----|--2----|
E|-0------|--------|-4------|-0-----|

                             Eu sempre achando que chegou ao fim
      E
E|---------------0-|
B|---------------0-|
G|-------1-1h2p1-1-|
D|-----2---------2-|
A|---2-----------2-|
E|-0-------------0-|
Colaboración y revision:
  • Allan caixeta
25 reproducciones
    • ½ Tono
    • A
    • Bb
    • B
    • C
    • Db
    • D
    • Eb
    • E
    • F
    • F#
    • G
    • Ab
  • Adicionar à lista

    0 comentarios

    Ver todos os comentários
    00:00 / 00:00
    outros vídeos desta música
    repetir qualidade Automático
    Outros vídeos desta música
    00:00 / 00:00
    Automático
    OK