Cifra Club

Pac-Man

Lucas Lucco

Tablatura: Principal
reproducciones 196
Tono: D# (con acordes en la forma de D) Capo en 1ª casa
Intro: Bm G D A (Seguem abaixo junto ao solo)

                         Bm             G               D               A
E|-----------------------------------------------------------------------------------|
B|-----------------------------------------------------------------------------------|
G|------------------------8-7------8-7----------------------------------8-7----------|
D|----------3-4-5------10-----10-8------8p10-10-10h8---8s10-10-10p8---8-----10-8-10--|
A|------3-6--------3-----------------------------------------------------------------|
E|--3-6------------------------------------------------------------------------------|

     Bm            G               D               A
E|-------------------------------------------------------------------|
B|-------------------------------------------------------------------|
G|----8-7------8-7----------------------------------8-7--------------|
D|-10-----10-8------8p10-10-10h8---8s10-10-10p8---8-----10-8-10------|
A|-------------------------------------------------------------------|
E|-------------------------------------------------------------------|

 Bm
Agora você atende
   G
Responde minhas mensagens
 D                        A
Diz que tá sozinha e tá morrendo de saudade.
 Bm                   G
Antes de ficar comigo nunca me deu moral
 D                           A                         Bm
Agora tô bombando e com a pegada elas passam mal  A noticia se espalhou .
      G
Sou bomberman o estorado
 D                     A
Lucas Lucco agora é delícia da mulherada

  Bm                   G
Eu tô que nem o Bombermam
                 D
Que nem o Bomberman
            A
Bum bum bummmm...
  Bm                   G
Eu tô que nem o Bombermam
                 D
Que nem o Bomberman
            A
Bum bum bummmm...estorado com a mulherada...

 Bm
Antes de ficar comigo
  G
Nunca me deu moral
 D                        A
Agora conhecido eu to lindo pegando geral
 Bm
Todos já sabem
      G                 D
Tô estilo Pac Man  Correndo atrás
              A
das lindas e Hen hen hen

 Bm                  G
Eu tô que nem o Pac Man
               D
Que nem o Pac Man
           A
Nhec nhec nhec
 Bm                  G
Eu tô que nem o Pac Man
               D
Que nem o Pac Man
           A
Nhec nhec nhec
Acordes para:

    0 comentarios

      mostrar más comentarios

      ¿Conseguiste tocar?

      11tocaron1aún no

      ¡Graba un vídeo tocando Pac-Man y envianoslo!

      00:00 / 00:00
      outros vídeos desta música
      repetirqualidadeautomática
      Outro vídeos desta música
        00:00 / 00:00
        automática
        OK