Cifra Club

Sem Ninguém

Luccas Carlos

Cifrado: Principal (guitarra y guitarra eléctrica)
tono: G
[Solo] 2x

      D5                C
E|--------------0---------------------------|
B|-------3--------3---------1------3-1------|
G|-----2----2-------2-----0----0-------0----|
D|---0--------0-----------------------------|
A|----------------------3--------3----------|
D|------------------------------------------|

      Am                C7M
E|------------------------------------------|
B|--------1-----------------0---------------|
G|-----------2-----------------0------------|
D|------2-----------------2-----------------|
A|----0-----------------3-------------------|
D|------------------------------------------|

                D5                                 C
Eu tento não pensar mas a chuva caindo me lembra você
               Am                            C7M
E você tenta dormir só que passa a madrugada pensando em nós
                  D5                                     C
Nosso tempo não para e parece que eu nunca parei pra perceber
                 Am                                         C7M
Que meu dia era lindo se quando eu acordasse eu ouvisse sua voz

   D5
Lembro quando disse pra mim
          C
Que queria que não tivesse fim
     Am                C7M
E disse que me amava também, também, também

     D5
E hoje o que resta de mim
  C
Diz o que resta de nós
     Am                C7M
A gente se amava tão bem, tão bem, tão bem
 
      D5                                 C
Eu perguntei se volta e ela diz que não vem
              Am                C7M
Eu não quero viver a vida sem você
                  D5                      C
Ela diz que não volta e eu em casa sem ninguém
                   Am           C7M
E eu em casa sem ninguém
Composición de Luccas Carlos
Colaboración y revisión:
  • Vitor Lima
  • Bruno Nogueira
1.077 vistas
    • ½ Tono
    • A
    • Bb
    • B
    • C
    • Db
    • D
    • Eb
    • E
    • F
    • F#
    • G
    • Ab
  • Agregar a la lista

    0 comentarios

    Ver todos los comentarios

    ¿Lograste tocar?

    26 Tocaron 12 Aún no

    ¡Graba un video tocando Sem Ninguém y envíanoslo!

    00:00 / 00:00
    Outros vídeos desta música
    Repetir Calidad Automático
    Outros vídeos desta música
    00:00 / 00:00
    Automático
    OK