Cifra Club

Nessun Dorma

Luciano Pavarotti

Tablatura: Principal (guitarra)
reproducciones 612
Tono: Bm
E|--------------------------------------------------2-2-0--------------------|
B|-3-3-3-3------------3-3-3-3-1-0-0-----------------------3-3-3-3-3-3-1-0-0--|
G|-----------------------------------4-4-4-3---0-0---------------------------|
D|---------0-0-0-0---------------------------4-------------------------------|
A|---------------------------------------------------------------------------|
E|---------------------------------------------------------------------------|

E|-------------0-2-0---0-----0-2-3-2-0-2------0-2-3-5-5-5-2-2-2-2-------0----|
B|-----------3-------3---2-0-------------3-2-3--------------------3-------2--|
G|-4-3---0-0--------------------------------------------------------2-2------|
D|-----4---------------------------------------------------------------------|
A|---------------------------------------------------------------------------|
E|---------------------------------------------------------------------------|

E|------------------------2-0--------------------0-2-0---0-----0-2-3-2-0-2---|
B|-3--------3-3-1-0-0-0-3-----3-3-3------------3-------3---2-0-------------3-|
G|----------------------------------4-3--------------------------------------|
D|--------------------------------------4-5-5--------------------------------|
A|---------------------------------------------------------------------------|
E|---------------------------------------------------------------------------|

E|-----0-2-3-5-5-5-5-5-2-2-2-2-2-2--------------0---------3---7-5------------|
B|-2-3-----------------------------3--------------2-3-0-3---3----------------|
G|-----------------------------------2-2-2-2-2-------------------------------|
D|---------------------------------------------------------------------------|
A|---------------------------------------------------------------------------|
E|---------------------------------------------------------------------------|
Acordes para:
    Compositor: Giacomo Puccini Colaboración y revision:
    • Daniel Selmer

    0 comentarios

    mostrar más comentarios

    ¿Conseguiste tocar?

    1 tocaron 0 aún no

    ¡Graba un vídeo tocando Nessun Dorma y envianoslo!

    00:00 / 00:00
    outros vídeos desta música
    repetir qualidade Automático
    Outros vídeos desta música
    00:00 / 00:00
    Automático
    OK