Cifra Club

Cuando Respiro En Tu Boca

Lucybell

Cifrado: Principal (guitarra y guitarra eléctrica)
Selo Cifra Club: esta cifra foi revisada para atender aos critérios oficiais da nossa Equipe de Qualidade.
tono: Dm
E|-7-8-8-8-8-8-8-8-8-8-8-8-8-8-8-8-8-8-8-8-7-7-7-7-|
B|-6-6-6-6-6-6-6-6-6-6-6-6-6-6-6-6-6-6-6-6-6-6-6-6-|
G|-5-5-5-5-5-5-5-5-5-5-5-5-5-5-5-5-5-5-5-5-5-5-5-5-| X 6
D|-------------------------------------------------|
A|-------------------------------------------------|
E|-------------------------------------------------|

Acordes a utilizar!

  F       C        Dm      A#m      Em
E|-8--| |--3--    |-5--    |-1--    |-7--
B|-8--| |--5--    |-6--    |-3--    |-7--
G|-10-| |--5--    |-7--    |-3--    |-9--
D|-10-| |--5--    |-7--    |-3--    |-9--
A|-8--| |--3--    |-5--    |-1--    |-7--
E|-8--| |--3--    |-5--    |-1--    |-7--

min 0:26


     F                                  Dm
Me alzo y salto de entre tus dedos sabre caer

                                    C             A#m
Ojala que sea cierto que odio tus dedos  ay ay ay ay

      F                                  Dm
Me estiro y espero que algo enrosque tu espalda en flor

                                    C             A#m
Ojala que sea cierto que odio tu espalda ay ay ay ay



    F
Cuando respiro en tu boca
      Em
Y penetra tu ojo en mi ojo
    F
Cuando respiro en tu boca
     Em                           F 
Me escondes como sangre a la herida.....



       F                           Dm 
Me pongo de pie y perdono el daño que a mi oido destrozo
                               C            A#m
Que sea cierto que odio el silencio ay ay ay ay



     F
Cuando respiro en tu boca
     Em
Penetra tu ojo en mi ojo
      F
Me precipito hacia el cielo
      Em
Cuando respiro en tu boca
      figura 1 (ver abajo)
Cuando respiro en tu boca
      figura 1
De par en par tu flor tension y caida
      figura 1             F
Cuando respiro en tu boca



Figura 1:

E|---3--------3--------3-----3------------------|
B|------6--------6--------6-----6---------------|
G|---------5--------5--------------5------------|
D|----------------------------------------------|
A|----------------------------------------------|
E|----------------------------------------------|


Ahora solo falta el solo... y aqui esta!
E|-------------------------------------------------------|
B|-------------------------------------------------------|
G|---15-14-14---14-15-14-15-14-15--17-/-19--17-15-14-----|
D|-------------------------------------------------------|
A|-------------------------------------------------------|
E|-------------------------------------------------------|



E|-------------------------------|
B|-------------------------------|
G|-14-15-14-15-14-15--17--16-17--|
D|-------------------------------|
A|-------------------------------|
E|-------------------------------|
Otros videos de esta canción
    2.291 exhibiciones
      • ½ Tono
      • Am
      • Bbm
      • Bm
      • Cm
      • C#m
      • Dm
      • Ebm
      • Em
      • Fm
      • F#m
      • Gm
      • G#m
    • Agregar a la lista

    Afinação da cifra

    Afinador online

      Ops (: Contenido disponible solo en portugués.
      OK