Cifra Club

Clichê (part. Felipe Araújo)

Ludmilla

Cifrado: Principal (guitarra y guitarra eléctrica)
tono: Bm
[Intro] Bm7  D9  A  E

   Bm7                D9 
E|----------------------------0---0---------|
B|---------3---3----------------------------|
G|-----2-----2-----2------2-----2-----2-----|
D|---4---4-------4------4---4-------4-------|
A|-2------------------5---------------------|
E|------------------------------------------|

   A                  E 
E|---------0---0----------0---2/4\2p0-------|
B|------------------------------------------|
G|-----2-----2-----2----1---1---------------|
D|---2---2-------2--------------------------|
A|-0----------------------------------------|
E|--------------------0---------------------|

[Primeira Parte]

[Dedilhado]

   Bm7                  D9 
E|------------------------------0---0-------|
B|---------3-----3---3----------------------|
G|-----2-------2---2--------2-----2-----2---|
D|---4---4---4------------4---4-------4-----|
A|-2--------------------5-------------------|
E|------------------------------------------|

   A                  E
E|---------0---0----------0---2---0---------|
B|------------------------------------0-----|
G|-----2-----2-----2----1---1---1---1-------|
D|---2---2-------2--------------------------|
A|-0----------------------------------------|
E|--------------------0---------------------|

 Bm7
Pode parecer clichê
 D9
Mas, amor, eu e você
        A
Como a lua e o mar
          E
Tem que acontecer

 Bm7
Se a gente se perder
  D9
Eu   não quero nem saber
       A
Esse amor tá no ar
          E
Tem que acontecer

[Segunda Parte]

 Bm7                         D9
Vem, que igual nós dois não tem
                A 
E você faz tão bem, faz tão bem
              E
Que eu tô querendo te roubar um beijo

Bm7                 D9
E você é louco por mim
                                 A
Quando a gente se encontra, é assim
                      E
Não tem fim, não tem fim

Esse é o nosso desejo

[Refrão]

Bm7
   Quando a noite chegar, vou pegar você
D9
  Se prepara, que hoje eu quero fazer
 A                      E
Só pra te enlouquecer, só pra te enlouquecer

Bm7
   Quando a noite chegar, vou pegar você
D9
  Se prepara, que hoje eu quero fazer
 A                      E
Só pra te enlouquecer, só pra satisfazer

Meu ego

[Ponte]

Bm7
   Envolvente, sabe o que fazer
D9
  Quando ela quer, faz acontecer
  A
Cheia de atitude, pura tentação
 E
Se ela quiser, tu vai dizer que não?

 Bm7
Tem essa pegada de mulher independente
 D9
Sabe o seu valor, nunca tá carente
A
Eu já sei de cor tudo o que vai acontecer
  E
Quando ela me liga e diz que quer enlouquecer

[Primeira Parte]

 Bm7
Pode parecer clichê
 D9
Mas, amor, eu e você
        A
Como a lua e o mar
          E
Tem que acontecer (tem que acontecer)

 Bm7
Se a gente se perder
  D9
Eu   não quero nem saber (nem eu)
       A
Esse amor tá no ar
      E
Vai acontecer (vai acontecer)

[Segunda Parte]

       Bm7                         D9
Então vem, que igual nós dois não tem
                A 
E você faz tão bem, faz tão bem
              E
Que eu tô querendo te roubar um beijo

Bm7                 D9
E você é doida por mim
                                 A
Quando a gente se encontra, é assim
                      E
Não tem fim, não tem fim

Esse é o nosso desejo

[Refrão]

Bm7
   Quando a noite chegar, vou pegar você
D9
  Se prepara, que hoje eu quero fazer
 A                      E
Só pra te enlouquecer, só pra te enlouquecer

Bm7
   Quando a noite chegar, vou pegar você
D9
  Se prepara, que hoje eu quero fazer
 A                      E
Só pra te enlouquecer, só pra satisfazer

Meu ego

[Terceira Parte]

Bm7
   Eu vou satisfazer (meu ego)
D9 
  Deixa eu satisfazer (meu ego)
A                          E
  Eu vou pegar você (meu ego)

                   Bm7
Vem matar a minha sede (vou)
                    D9
Vem fazer minha vontade (hum)
                        A
Eu sei que no seu território
                            E
Eu mando em tudo e você também sabe

(Então vem)

[Final] Bm7

E|------------------------------------------|
B|---------3--------------------------------|
G|-----2------------------------------------|
D|---4---4----------------------------------|
A|-2----------------------------------------|
E|------------------------------------------|
00:00 / 00:00
Otros videos de esta canción
Repetir
Otros videos de esta canción
Composición de Jefferson Junior / Ludmilla / Umberto Tavares
Colaboración y revisión:
  • Thiago Almeida
620 vistas
    • ½ Tono
    • Am
    • Bbm
    • Bm
    • Cm
    • C#m
    • Dm
    • Ebm
    • Em
    • Fm
    • F#m
    • Gm
    • G#m
  • Agregar a la lista

    0 comentarios

    Ver todos los comentarios

    ¿Lograste tocar?

    3 Tocaron 1 Aún no

    ¡Graba un video tocando Clichê (part. Felipe Araújo) y envíanoslo!

    00:00 / 00:00
    OK