Cifra Club

Din Din Din (part. MC Pupio e MC Doguinha)

Ludmilla

Cifrado: Principal (guitarra y guitarra eléctrica)
tono: Bb (con acordes en la forma de A) Capotraste en 1ª casa
[Intro] Dm  Gm  Am
        Dm  Gm  Am

E|-10~--10-10--10-10-10-----------------------------|
B|--------------------------------------------------|
G|--------------------------------------------------|
D|--------------------------------------------------|
A|--------------------------------------------------|
E|--------------------------------------------------|

E|-10-10-10-10-12-13-12-10-12-13-12-10-12-13-12-10--|
B|--------------------------------------------------|
G|--------------------------------------------------|
D|--------------------------------------------------|
A|--------------------------------------------------|
E|--------------------------------------------------|

E|--------13-17-12--12-12-13-12-10-12-10~-----------|
B|-10-11~-------------------------------------------|
G|--------------------------------------------------|
D|--------------------------------------------------|
A|--------------------------------------------------|
E|--------------------------------------------------|

E|-10-12-13-12-10-12-13-12-10-12-13-12-10-----------|
B|--------------------------------------------------|
G|--------------------------------------------------|
D|--------------------------------------------------|
A|--------------------------------------------------|
E|--------------------------------------------------|

E|--------13-17-12--12-12-13-12-10-12-10~-----------|
B|-10-11~-------------------------------------------|
G|--------------------------------------------------|
D|--------------------------------------------------|
A|--------------------------------------------------|
E|--------------------------------------------------|

[Refrão]

Dm                                          Gm
 Já vou logo avisando que eu não tenho namorado
         Am                       Dm
Din din din, pode dar em cima de mim
         Am                       Dm
Din din din, pode dar em cima de mim

Dm
 Tá com ciúme, tá com ciúme?
Pega na mão e assume
Tá com ciúme, tá com ciúme?
Pega na mão

[Primeira Parte]

Dm                                             Gm
 O teu tempo tá passando e tu não toma uma atitude
                Am             Dm
Vou ter que ativar o meu modo Lud
                                             Gm
Feito um tapa na cara, essa é rápida e esperta
                   Am                      Dm
Vê se não fica moscando e receba essa indireta

[Pré-Refrão]

                                      Gm
Meu chiclete favorito é o sabor de cereja
                  Am
Se não for pedir muito (han!)
                  Dm
Cala a boca e me beija

[Refrão]

                                        Gm
Eu já tô avisando que eu não tenho namorado
         Am                       Dm
Din din din, pode dar em cima de mim
         Am                       Dm
Din din din, pode dar em cima de mim

Dm
 Tá com ciúme, tá com ciúme?
Pega na mão e assume
Tá com ciúme, tá com ciúme?
Pega na mão, pega na mão
Pega na mão e assume
Pega na mão, pega na mão
Pega na mão e assume
Pega na mão, pega na mão
Pega na mão e assume

[Solo] Dm  Gm  Am

E|-10--10-12-13-12-10-12-13-12-10-12-13-12-10-------|
B|--------------------------------------------------|
G|--------------------------------------------------|
D|--------------------------------------------------|
A|--------------------------------------------------|
E|--------------------------------------------------|

E|--------13-17-12--12-12-13-12-10-12-10~-----------|
B|-10-11~-------------------------------------------|
G|--------------------------------------------------|
D|--------------------------------------------------|
A|--------------------------------------------------|
E|--------------------------------------------------|

[Refrão]

Dm                                    Gm
 Eu já tô avisando que não tenho namorada
         Am                       Dm
Din din din, pode dar em cima de mim
         Am                       Dm
Din din din, pode dar em cima de mim

Dm
 Tá com ciúme, tá com ciúme?
Pega na mão e assume
Tá com ciúme, tá com ciúme?
Pega na mão, pega na mão

[Segunda Parte]

Dm                                                 Gm
 Então se liga aí, menina, olha o que eu vou te dizer
                   Am                            Dm
Me apresenta sua amiga, que eu não quero mais você
                                         Gm
De tanto que me enrolou, agora vou te falar
               Am                        Dm
Eu já peço desculpa, sua amiga eu vou pegar

[Pré-Refrão]

                                       Gm
Meu chiclete preferido é o sabor de cereja
                  Am
Se não for pedir muito
                  Dm
Cala a boca e me beija

[Refrão]

                                     Gm
Eu já tô avisando que não tenho namorada
         Am                       Dm
Din din din, pode dar em cima de mim
         Am                       Dm
Din din din, pode dar em cima de mim

Dm
 Tá com ciúme, tá com ciúme?
Pega na mão e assume
Tá com ciúme, tá com ciúme?
Pega na mão, pega na mão
Pega na mão e assume
Pega na mão, pega na mão
Pega na mão e assume

[Refrão]

Dm                                       Gm
 Eu já tô avisando que eu não tenho namorado
         Am                       Dm
Din din din, pode dar em cima de mim
         Am                       Dm
Din din din, pode dar em cima de mim

Dm
 Tá com ciúme, tá com ciúme?
Pega na mão e assume
Tá com ciúme, tá com ciúme?
Pega na mão, pega na mão
Pega na mão e assume
Pega na mão, pega na mão
Pega na mão e assume
Pega na mão, pega na mão
Pega na mão e assume

Dm        Am                       Dm
 Din din din, pode dar em cima de mim
Composición de Ludmilla / Mc Doguinha / MC Pupio
Colaboración y revisión:
  • Thiago Almeida
296 vistas
    • ½ Tono
    • A
    • Bb
    • B
    • C
    • Db
    • D
    • Eb
    • E
    • F
    • F#
    • G
    • Ab
  • Agregar a la lista

    0 comentarios

    Ver todos los comentarios

    ¿Lograste tocar?

    3 Tocaron 2 Aún no

    ¡Graba un video tocando Din Din Din (part. MC Pupio e MC Doguinha) y envíanoslo!

    00:00 / 00:00
    Otros videos de esta canción
    Repetir Calidad Automático
    Otros videos de esta canción
    00:00 / 00:00
    Automático
    OK