Cifra Club

Eu Não Quero Mais

Ludmilla

Cifrado: Principal (guitarra y guitarra eléctrica)
tono: Db
SOLO INTRO:
Parte 1:
E|--------------------------------------------------------
B|--------------------------------------------------------
G|---4--6--6/8--6--4---------4h6--4---------4h6--8--------
D|--------------------8--------------8--------------------
A|--------------------------------------------------------
E|--------------------------------------------------------

Parte 2:
E|--------------------------------------------------------
B|--------------------------------------------------------
G|---4--6--6/8--6--4---------4h6--4-----------------------
D|---------------------10------------8--6-----------------
A|--------------------------------------------------------
E|--------------------------------------------------------

F9      Dm7       Em7
Mais uma vez você mudou
  Am7              F9
E a gente não se fala mais
     Dm         Em7
Da outra vez você jurou
   Am7               F9
Que o que passou ficou pra trás
 Dm7             Em7
Eu avisei que era melhor
  Am7             F9
Esquecer e só viver em paz
   Dm7         Em7
Cadê você que deu um nó?
     Am7
Cria os sonhos e depois desfaz
Dm7              Em7
Mas te confesso que um beijo
          Am7
Já me desperta um desejo

Do que a gente faz
Dm7                Em7
Mas se for pra ser desse jeito
          Am7
Sem compromisso eu respeito
F C/E       Dm7  (C/E e uma passagem)
Mas não quero mais
F C/E Dm7     C/E
Eu não quero mais
     Em7
Te amar demais, me entregar demais
   Am7
Pra você dizer que tanto faz
F C/E  Dm7     C/E   Dm7
Eu não quero mais, não quero mais
     Em7
Te amar demais, pra sofrer demais
     Am7
Por alguém que diz que tanto faz
F  C/E Dm7
Eu não quero mais, não quero mais
Compositor não encontrado.
205 vistas
    • ½ Tono
    • A
    • Bb
    • B
    • C
    • Db
    • D
    • Eb
    • E
    • F
    • F#
    • G
    • Ab
  • Agregar a la lista

    0 comentarios

    Ver todos los comentarios

    ¿Lograste tocar?

    6 Tocaron 14 Aún no

    ¡Graba un video tocando Eu Não Quero Mais y envíanoslo!

    00:00 / 00:00
    Outros vídeos desta música
    Repetir Calidad Automático
    Outros vídeos desta música
    00:00 / 00:00
    Automático
    OK