Cifra Club

Bajan

Luis Alberto Spinetta

Chords: Principal (acoustic and electric guitars)
tone: E
[Primeira Parte] 

E         F#m
  Tengo tiempo     para saber
C#m               Ab7  B
    Si  lo  que  sueño  concluye  en  algo
E           F#m
    No te apures    ya más loco
C#m           D#°       B
    Porque es entonces cuando las horas

[Segunda Parte] 

 C#m        G#m      B            C#m
Bajan, el  día  es  vidrio  sin  sol 
      G#m        B         C#m
Bajan, la noche te ocul  -  ta   la   voz 

[Refrão] 

      C        Am7     G#7    F#m
Y además    vos    querés sol 
   C#m      D#5+           C#m    C#m/D#  
Despacio también podés hallar la luna 

( C#m/E  A7M )

[Terceira Parte] 

E          F#m
 Viejo roble     del camino
C#m           D#°      B
    Tus  hojas   siempre  

Se   agitan   algo
E          F#m
    Nena, nena,   que bien te ves
C#m           D#°   
   Cuando en tus ojos   
      B
No importa si las horas
 C#m       G#m       B           C#m
Bajan, la noche  es  día  sin  sol 
    G#m       B        C#m
Bajan, el día que nunca acabó 

[Refrão] 

     C      Am7      G#7   F#m
Y además   vos   sos el sol 
    C#m      D#5+        C#m    C#m/D#  
Despacio también podés  ser la luna

( C#m/E  A7M )

[Solo] 

E|-------------------------------------------------|
B|-------------------------------------12-------12-|
G|-11b13-11b13~~-11b13r11--------11b13----11b13----|
D|------------------------9-11~~-------------------|
A|-------------------------------------------------|
E|-------------------------------------------------|

E|----------------------------------|
B|----------------------------------|
G|-11b13-11-9-11-11--9-11----9-11---|
D|------------------------11------9-|
A|----------------------------------|
E|----------------------------------|

E|----------------------------9---14r12-12-11-9----9------------------|
B|----------------------------------------------12--------------------|
G|-------------9-9-11-9-11b13------------------------11b13-11-9-11----|
D|------9-9-11-----------------------------------------------------11-|
A|-9-11---------------------------------------------------------------|
E|--------------------------------------------------------------------|

E|-------------12----14b16-14-12----12----------------------------|
B|-------12-14----12-------------15-------------------------------|
G|-11/13-------------------------------14b16-14-12-13----12b13----|
D|----------------------------------------------------14-------14-|
A|----------------------------------------------------------------|
E|----------------------------------------------------------------|

E|------------------------------------------------------------|
B|----12-14----12-14----12-14----12-14----12-14----12-14------|
G|-13-------13-------13-------13-------13-------13-------13~~-|
D|------------------------------------------------------------|
A|------------------------------------------------------------|
E|------------------------------------------------------------|

E|---------------------------------------------------------------------|
B|----12-14----12-14----12-14----12-14----12-14----12-14----12-14------|
G|-13-------13-------13-------13-------13-------13-------13-------13~~-|
D|---------------------------------------------------------------------|
A|---------------------------------------------------------------------|
E|---------------------------------------------------------------------|

E|---------------------------------------------------------------------|
B|-----------------------9-----9---------------------------------------|
G|-11b13~~r11-9-11b13~~--11b13-11b13-11b13~-11b13-11-9-11----9-11-11-9-|
D|--------------------------------------------------------11-----------|
A|---------------------------------------------------------------------|
E|---------------------------------------------------------------------|

E|--------------------------------------------|
B|-10b12-10b12-10-9-10-9-------------10-12b14-|
G|------------------------------9-11----------|
D|-------------------------9-11---------------|
A|--------------------------------------------|
E|--------------------------------------------|
00:00 / 00:00
Other videos of this song
Repeat
Other videos of this song
Composed by Luis Alberto Spinetta
Collaboration and Review:
19.618 views
    • ½ Tone
    • A
    • Bb
    • B
    • C
    • Db
    • D
    • Eb
    • E
    • F
    • F#
    • G
    • Ab
  • Add to list
    00:00 / 00:00
    OK