Cifra Club

Bajan

Luis Alberto Spinetta

Cifrado: Principal (guitarra y guitarra eléctrica)
Selo Cifra Club: esta cifra foi revisada para atender aos critérios oficiais da nossa Equipe de Qualidade.
tono: E
[Intro] E  G  E  G
        E  G  E  G

[Tab - Intro]

E|---0------0---------0------0--------------|
B|-----0--2---------0---0--2----------------|
G|------------------------------------------|
D|------------------------------------------|
A|------------------------------------------|
E|-0-----------3-0--------------------------|

E|------0-----0---------0------0------------|
B|--------0-2---------0---0--2--------------|
G|------------------------------------------|
D|------------------------------------------|
A|------------------------------------------|
E|-3-0-----------3-0--------------3-0-------|

[Primeira Parte]

E              F#m
  Tengo tiempo     para saber
C#m             F#°      B7
    Si lo que sueño concluye en algo
E              F#m
  No te apures     ya más loco
C#m              F#°        B7
    Porque es entonces cuando las horas

[Pré-Refrão]

 C#m       G#m    B          C#m
Bajan, el día es vidrio sin sol
           G#m       B      C#m
Bajan, la noche te oculta la voz

[Refrão]

      C    Am    G#m   F#m
Y además, vos, querés sol
    C#m       B7                      C#m  
Despacio también podés hallar la luna

( D#7(9-)  E6  A  Riff )

[Segunda Parte]

E             F#m
  Viejo roble     del camino
C#m             F#°
    Tus hojas siempre
     B
Se agitan algo
E             F#m
  Nena, nena,     que bien te ves
C#m               F#°
    Cuando en tus ojos
      B
No importa si las horas

[Pré-Refrão]

 C#m       G#m     B         C#m
Bajan, el dia se sienta a morir
           G#m      B       C#m
Bajan, la noche se nubla sin fin

[Refrão Final]

      C    Am    G#m   F#m
Y además, vos, querés sol
    C#m       B7                      C#m  
Despacio también podés hallar la luna

[Final] D#7(9-)  E6  A  Riff

[Tab - Final]

Parte 1 de 10
E|------------------------------------------|
B|---------------------------------------12-|
G|-11b13--11b13~--11b13-11--------11b13-----|
D|-------------------------9-11~------------|
A|------------------------------------------|
E|------------------------------------------|

Parte 2 de 10
E|------------------------------------------|
B|--------12---------12---------------------|
G|--11b13------11b13------11b13-11-9-11-----|
D|------------------------------------------|
A|------------------------------------------|
E|------------------------------------------|

Parte 3 de 10
E|------------------------------------------|
B|------------------------------------------|
G|-11~--9-11----9-11-------------------9-9--|
D|-----------11-------9~--------9-9/11------|
A|-------------------------9h11-------------|
E|------------------------------------------|

Parte 4 de 10
E|----------------14\12-12--12-9----9-------|
B|------------14-----------------12---------|
G|-11-9-11b13-------------------------11b13-|
D|------------------------------------------|
A|------------------------------------------|
E|------------------------------------------|

Parte 5 de 10
E|---------------------------12-------------|
B|---------------------12-14----12----------|
G|-11-9-11-------11/13----------------------|
D|---------11-------------------------------|
A|------------------------------------------|
E|------------------------------------------|

Parte 6 de 10
E|-15b16-15-12-11-12------------------------|
B|--------------------10b11-10-8-9----------|
G|---------------------------------9--11b13-|
D|------------------------------------------|
A|------------------------------------------|
E|------------------------------------------|

Parte 7 de 10
E|-------------------9------9------9------9-|
B|--------------9-12---9-12---9-12---9-12---|
G|-9--11b13-9-------------------------------|
D|------------------------------------------|
A|------------------------------------------|
E|------------------------------------------|

Parte 8 de 10
E|------9------9-----------9-------9------9-|
B|-9-12---9-12---9~---9-12----9-12---9-12---|
G|------------------------------------------|
D|------------------------------------------|
A|------------------------------------------|
E|------------------------------------------|

Parte 9 de 10
E|------9------9------9---------------------|
B|-9-12---9-12---9-12---9~------------------|
G|--------------------------13\11-9--11b13~-|
D|------------------------------------------|
A|------------------------------------------|
E|------------------------------------------|

Parte 10 de 10
E|------------------------------------------|
B|------------------------------------------|
G|-9~--11b13---11b13--12-9-11----9-11-9~----|
D|----------------------------11------------|
A|------------------------------------------|
E|------------------------------------------|
Otros videos de esta canción
    301.741 exhibiciones
    • Simplificar cifrado
      • ½ Tono
      • A
      • Bb
      • B
      • C
      • Db
      • D
      • Eb
      • E
      • F
      • F#
      • G
      • Ab
    • Agregar a la lista

    Afinación de cifrado

    Afinador online

      OK