Cifra Club

Durazno Sangrando

Luis Alberto Spinetta

Cifrado: Principal (guitarra y guitarra eléctrica)
Selo Cifra Club: esta cifra foi revisada para atender aos critérios oficiais da nossa Equipe de Qualidade.
tono: A
[Intro]

E|--------9--------------5------------0--|
B|---10h9----8h7----6h5-----4h3-----3-1--|
G|---------------7---------------3--2-2--|
D|------------------------------------3--|
A|---9-------7------5-------3-------2-0--|
E|---------------------------------------|

[Primeira Parte]

     Am        Am6      F7M    E7
Temprano el durazno del arbol cayo
    Am       Am6     F7M        E7
Su piel era rosa dorada por el sol
      Dm7         C7M     F7M     E7(9-)
Y al verse en la suerte de todo frutal
     Am            Am6    F7M    E7    Am
A la orilla de un rio su fe lo hizo llegar

 C7M
Dicen que en este valle
 F7M                        Am
Los duraznos son de los duendes

[Segunda Parte]

   Am          Am6      F7M     E7
Paso cierto tiempo en el mismo lugar
    Am           Am6      F7M         E7
Hasta que un buen dia se puso a escuchar
Dm7    C7M     F7M      E7(9-)
Una melodia muy triste del sur
     Am        Am6     F7M     E7 Am
Que asi le lloraba desde su interior

[Refrão]

 C7M
Quien canta es tu carozo
 F7M                        Am
Pues tu cuerpo al fin tiene un alma
C7M
Y si tu ser estalla
 F7M                    Am
Sera un corazon el que sangre
C7M
Y la cancion que escuchas
 F7M                    Am
Tu cuerpo abrira con el alba

[Terceira Parte]

     Am         Am6      F7M    E7
La brisa de enero a la orilla llego
    Am         Am6       F7M   E7
La noche del tiempo sus horas cumplio
       Dm7     C7M  F7M     E7(9-)
Y al llegar el alba el carozo canto
     Am       Am6        F7M  E7   Am
Partiendo el durazno que al rio cayo

C7M
Y el durazno partido
F7M                     Dm7   C7M
Ya sangrando esta, bajo el agua

[Tab - Final]

    Am
E|--0--2---3---5--7-8--7h8p7-7h8p7-------|
B|--1------------------------------------|
G|--2------------------------------------|
D|--2------------------------------------|
A|--0------------------------------------|
E|---------------------------------------|
Otros videos de esta canción
    84.463 exhibiciones
      • ½ Tono
      • A
      • Bb
      • B
      • C
      • Db
      • D
      • Eb
      • E
      • F
      • F#
      • G
      • Ab
    • Agregar a la lista

    Afinación de cifrado

    Afinador online

      OK