Cifra Club

Me gusta ese tajo

Luis Alberto Spinetta

Cifrado: Principal (guitarra y guitarra eléctrica)
Selo Cifra Club: esta cifra foi revisada para atender aos critérios oficiais da nossa Equipe de Qualidade.
tono: E
Intro:
se lo dedico a mi novia,soy nuevo y todavía no termine mis estudios
en música.


E|------------|-----------|----------------|---------------------|
B|------------|-----------|----0-3---------|---------0-3---------|
G|------------|-----------|--3-----------0-|-------3-----------0-|
D|------------|-----------|----------------|---------------------|
A|--2--2--4--2|-2--2--4--2|---------2--4---|-2--4---------2--4---|
E|--0--0--0--0|-0--0--0--0|---------0--0---|-0--0---------0--0---|

E|------4---|--------4---4^^|------4--------------|
B|----------|---------------|--------0-3-----3-0--|
G|--4-------|--1/4----4-----|--1/4------4^^-------|
D|----------|---------------|---------------------|
A|----------|---------------|---------------------|
E|----------|---------------|---------------------|

E|------------|---------------|-----------------|
B|------------|---------------|-----------------|
G|--------3^--|---------2^-0--|--3^^-3^^-3^^-2--|
D|------------|---------------|-----------------|
A|--2--4------|--2--4---------|-----------------|
E|--0--0------|--0--0---------|-----------------|

E|------6---5------4--------|---4-------3-----2---------------|
B|----------------------3---|----------------------| -------2--|
G|-2/4----4-----2/4---4---4-|-4-----4/3---3/2----0/1-------2--|
D|--------------------------|------------------------------1--|
A|--------------------------|------------------------0^2---2--|
E|--------------------------|---------------------------------|

E|-----------------------|-----------------------|-------| ----|
B|-----------------------|-----------------------|------------|
G|----1------------------|---3^--0.2-0.2-0.2^--0-|--1---------|
D|----2------------------|-----------------------|--2---------|
A|----2------------------|-----------------------|--2---------|
E|-----------------------|-----------------------|------------|

  con sus lindas piernas..ella me hace pensar.  pero a destruir...



E|-----------------|-------6---5--------4----------------------|
B|--------------0--|-------------------------3---------3-3-3-3-|
G|--2^--2^--2^-----|--2/4----4-------2/4---4---4---0-----------|
D|-----------------|-------------------------------------------|
A|-----------------|-------------------------------------------|
E|-----------------|-------------------------------------------|

E|------6---5-------4--------|----4-------3-----2--------------------|
B|-----------------------3---|------------------------------------2--|
G|-2/4----4-----2/4---4----4-|--4-----4/3---3/2----0/1------------2--|
D|---------------------------|------------------------------------1--|
A|---------------------------|--------------------------0^2-------2--|
E|---------------------------|---------------------------------------|
Otros videos de esta canción
    1.770 exhibiciones
      • ½ Tono
      • A
      • Bb
      • B
      • C
      • Db
      • D
      • Eb
      • E
      • F
      • F#
      • G
      • Ab
    • Agregar a la lista

    Afinación de cifrado

    Afinador online

      OK